PrimaNota.ru - самый крупный в мире бесплатный архив песенных текстов, аккордов, табулатур и нот


Sonu Nigam - Dum - таба, видео

Регистрация Запомнить меня
Войти через:  Facebook Google Twitter Vk Yandex Mail.ru

Sonu Nigam - Dum - таба, видео

Печатать
Просмотров: 105
                        DUM
              From the Hindi movie “DUM”
originally sung by Sandeep Chowta

By Sanjeev George and Thomas George
SanjeevGeorge123@yahoo.co.in

Please rate it

| b  bend
| r  release bend
| s  slide up of down, as required
| h  hammer-on
| p  pull-off
| ~  hold note ands let ring
| v  vibrato
| *  lower note with tremolo bar
| PM Palm mute

Intro: C

Verse:

“Ruke ho kyun…..jhuke ho kyun”

e|----------------------|
B|----------------------|
G|---8------------------|
D|---8---8/10-----------|
A|---6---8/10-----------|
E|-------6/8------------|


“Ruke ho kyun“                       “jhuke ho kyun”

e|--------------------------------------------------------------|
B|--------------------------------------------------------------|
G|---8------------8--10-10------------8-----------8--5-5\-------|
D|---8---8/10-----8--10-10---5---8----8---8/10----8--5-5\-------|
A|---6---8/10-----6--8--8----5---8----6---8/10----6--3-3\-------|
E|-------6/8-----------------3---6--------6/8-------------------|


“Chal Hardam Mere Hamdam….”

e|------------------------|
B|------------------------|
G|--5---8---10---12-------|play twice
D|--5---8---10---12-------|
A|--3---6---8----10-------|
E|------------------------|


“Seene Mein Sholay…….”        “……Hai Dum”

e|--------------------------------------------|
B|--------------------------------------------|
G|---5---8-5----5---8-5----5---8-5------------|
D|---5---8-5----5---8-5----5---8-5---5~-------|
A|---3---6-3----3---6-3----3---6-3---5~-------|
E|-----------------------------------3~-------|


Chorus:
“Dum Jaan Mein Dum…..”

e|--------------|
B|--------------|
G|--------------|
D|---8/10--8----|
A|---6/8---6----|
E|--------------|

Before solo:

e|----------------------------------|
B|----------------------------------|
G|--5------------8------------------|
D|--5----5----8--8--8--10---5*------|
A|--3----5----8--6--8--10-----------|
E|-------3----6-----6--8------------|

Solo

e|-------------------------------10b11---10v-----------------------|
B|--11b13---11b13—r11----11v---------------------------------------|
G|--------------------12----------------------12—12b13r12—10v------|
D|-----------------------------------------------------------------|
A|-----------------------------------------------------------------|
E|-----------------------------------------------------------------|

e|----------------------------------------------------------------------15v------|
B|-------------------------------------------------------------15h16h18----------|
G|-------8----10b12r10p8---------------------------------15h17-------------------|
D|--8-10---10------------10v--------------------15h17h18-------------------------|
A|-------------------------------12/15-15h17h18----------------------------------|
E|-------------------------------------------------------------------------------|
   ---PM-----


e|---18---15---------------------18--15—18b20-18v-----|
B|-----------18—18b20r19b20v--------------------------|
G|----------------------------------------------------|
D|----------------------------------------------------|
A|----------------------------------------------------|
E|----------------------------------------------------|

e|-----15-----------11p10------------------------------------19b---hold bend---|
B|---16-------15--11-----11-------11-------11----------------------------------|
G|-17----17-15--12---------12p10----12p10----12p10-----------------------------|
D|------------------------------13-------13-------13-10v-----------------------|
A|-----------------------------------------------------------------------------|
E|-----------------------------------------------------------------------------|

Rhythm for solo

e|--------------------------------|
B|--------------------------------|
G|--5----7/8----------------------|play twice
D|--5----7/8-5/6----3~---8~--10~--|
A|--3----5/6-5/6----3~---8~--10~--|
E|-----------3/4----1~---6~---8~--|


Stanza 1

    “Dum Kabhi Jo Hare Na Hausle”     “Seene Mein Seene Mein”
e|-------------------------------------------------------------------|
B|-------------------------------------------------------------------|
G|---5----------------------------------------8--5------8--5---------|
D|---5----------------------------------------8--5------8--5---------|
A|---3-3-3-3-3-3-3-3-3-3-3-3-3-3-3-3-3-3-3----6--3------6--3---------|
E|-------------------------------------------------------------------|

    “Dum Shikhar Pe Jaa Ke Hi Saans Le”    “Seene Mein Seene Mein”

e|---------------------------------------------------------------------|
B|---------------------------------------------------------------------|
G|---5--------------------------------------------8--5------8--5-------|
D|---5-----------8~-----------3~------------------8--5------8--5-------|
A|---3-3-3-3-3-3-8~-----------3~------------------6--3------6--3-------|
E|---------------6~-----------1~---------------------------------------|


“Jeet Ki Jung Hai………….. Kha Ke zakhm Jo Phir Uthe….”

e|------------------------|
B|------------------------|
G|--10--------------------|play twice
D|--10----8----6----5-----|
A|---8----8----6----5-----|
E|--------6----4----3-----|


After 2nd time chorus, before stanza 2
e|--------------------------------------|
B|--------------------------------------|
G|--------------------------------------|play twice
D|---5-5---8-----5-5---8-----5-5---8----|
A|---3-3---6-----3-3---6-----3-3---6----|
E|--------------------------------------|

Stanza 2: same as stanza 1

Chorus
Verse
Chorus for last time


Verse
Ruke Ho Kyun, Jhuke Ho Kyun...(2)
Chal Hardam Mere Hamdam
Saath Chal Har Kadam
Tu Na Dum Aasu Ya Gum
Jeet Jaayenge Hum
Seene Mein Sholay
kar Jo Dil Bole
Jo Teri Jaan Mein Hai Dum

Chorus
Dum Jaan Mein Dum
Hey Dum Jaan Mein Dum

Stanza 1
Dum Kabhi Jo Hare Na Hausle
Seene Mein Seene Mein
Dum Shikhar Pe Jaa Ke Hi Saas Le
Seene Mein Seene Mein
Jeet Ki Jung Hai 
Jung Mein Chot Sabh Ne Khaayi
Kha Ke zakhm Jo Phir Uthe
Aur Jeet Le Ladai


Chorus
Dum Jaan Mein Dum
Hey Dum Jaan Mein Dum


Stanza 2
Dum Diya Jo Aandhiyo Mein Jale
Seene Mein Seene Mein
Dum Andhero Ko Bujha Ke Chale
Seene Mein Seene Mein
Daar Hai Sabhko 
Daar Se Joo Aankh Na Churaye
Jurm Se Nazre Mile 
Jurm Nazren Jhukaye


Chorus
Dum Jaan Mein Dum
Hey Dum Jaan Mein Dum


Verse 
Ruke Ho Kun, Jhuke Ho Kun...(2)
Chal Hardam Mere Hamdam
Saath Chal Har Kadam
Tu Na Dum Aasu Ya Gum
Jeet Jaayenge Hum
Seene Mein Sholay
kar Jo Dil Bole
Jo Teri Jaan Mein Hai Dum

Chorus
Dum Jaan Mein Dum
Hey Dum Jaan Mein Dum!
Добавлено: 06.07.2012
Другие материалы по этой песне:
  • Аккорды и текст

Страница создана 06.07.2012
http://primanota.ru/sonu-nigam/dum-chords.htm
Привет, Гость.
Предлагаем пройти революционный курс по гитаре.
Подарок от PrimaNota.Ru, забирай!