PrimaNota.ru - самый крупный в мире бесплатный архив песенных текстов, аккордов, табулатур и нот


Sons Of Otis - Mile High - бас-таба, видео

Регистрация Запомнить меня
Войти через:  Facebook Google Twitter Vk Yandex Mail.ru

Sons Of Otis - Mile High - бас-таба, видео

Печатать
Просмотров: 77
Уроки эстрадного вокала в Санкт-Петербурге
-----------------------------------------------------------------------------
                            Sons of Otis - Mile High (album Temple Ball)
-----------------------------------------------------------------------------

Tabbed By : fumanchu001
e-mail: fumanchu@centrum.sk

If you find big mistakes in this tab, please send me a mail.
If you find small one, just put it in a comment.
Enjoy!

Tuning: EADG


Main riff:

E|--1-h3--1-h3--1-h3--1-h3-------|
A|--------------------------1-1--|
D|-------------------------------|
G|-------------------------------|


Verse:

E|--3------1-h3--1-h3--1-h3--1-h3-------|
A|---------------------------------1-1--|
D|--------------------------------------|
G|--------------------------------------|


Chorus:

E|----------------1-h3--1-h3--1-h3--1-h3-------1-h3--1-h3--1-h3--1-h3-------|
A|--1------3------------------------------1-1--------------------------1-1--|
D|--------------------------------------------------------------------------|
G|--------------------------------------------------------------------------|


Bridge:

E|------------------------------1-h3--1-h3--1-h3--1-h3-------1-h3--1-h3--1-h3--1-h3-------|
A|--3------3------3------3------------------------------1-1--------------------------1-1--|
D|----------------------------------------------------------------------------------------|
G|----------------------------------------------------------------------------------------|



| /  slide up
| \  slide down
| h  hammer-on
| p  pull-off
| ~  vibrato
| +  harmonic
| x  Mute note
=============================================================================
Добавлено: 28.12.2015
Другие материалы по этой песне:
  • Аккорды и текст

Страница создана 28.12.2015
http://primanota.ru/sons-of-otis/mile-high-chords.htm
Привет, Гость.
Предлагаем пройти революционный курс по гитаре.
Подарок от PrimaNota.Ru, забирай!