PrimaNota.ru - самый крупный в мире бесплатный архив песенных текстов, аккордов, табулатур и нот


Sons Of Otis - Iron Horse - бас-таба, видео

Регистрация Запомнить меня
Войти через:  Facebook Google Twitter Vk Yandex Mail.ru

Sons Of Otis - Iron Horse - бас-таба, видео

Печатать
Просмотров: 67
Уроки эстрадного вокала в Санкт-Петербурге
-----------------------------------------------------------------------------
                            Sons of Otis - Iron Horse (album Exiled)
-----------------------------------------------------------------------------

Tabbed By : fumanchu001
e-mail: fumanchu@centrum.sk

If you find big mistakes in this tab, please send me a mail.
If you find small one, just put it in a comment.
Enjoy!

Tuning: EADG


Verse/during solo:

E|--4-4-4-----------4-4-4--------------|
A|--------2-4-4-4-2-------2-4--4--4-2--|
D|-------------------------------------|
G|-------------------------------------|


Chorus:

E|--------------------------------------------------------------------------|
A|--7--7--7--7--6--6--6--6--7--7--7--7--6--6--6--6--7--7--7--7--9--9--9--9--|
D|--------------------------------------------------------------------------|
G|--------------------------------------------------------------------------|


Chorus out:                             Outro:

E|--4-4--------------4-4-----------4--||----4--|
A|------2-4---4-42-------2-4--4-42----||--2----|
D|------------------------------------||-------|
G|------------------------------------||-------|



| /  slide up
| \  slide down
| h  hammer-on
| p  pull-off
| ~  vibrato
| +  harmonic
| x  Mute note
=============================================================================
Добавлено: 28.12.2015
Вам также может быть интересно:
Другие материалы по этой песне:
  • Аккорды и текст

Страница создана 28.12.2015
http://primanota.ru/sons-of-otis/iron-horse-chords.htm
Привет, Гость.
Предлагаем пройти революционный курс по гитаре.
Подарок от PrimaNota.Ru, забирай!