PrimaNota.ru - самый крупный в мире бесплатный архив песенных текстов, аккордов, табулатур и нот


Sons Of Butcher - Rockload - таба, видео

Регистрация Запомнить меня
Войти через:  Facebook Google Twitter Vk Yandex Mail.ru

Sons Of Butcher - Rockload - таба, видео

Печатать
Просмотров: 91
Song: Rockload
Band: Sons Of Butcher
Album: Sons Of Butcher
Tabbed By: Masterbasser36


Intro
|-----------------------------------------------------------------------------------------------|

|-----------------------------------------------------------------------------------------------|

|---------------------------------------------------------7—9-------------------7-7-7-9-9-9-9---|

|---------------------------------------------------------7—9---9-9-9-9-9-9-9-9-7-7-7-9-9-9-9---|

|--------------------5-5-5-7-7-7-7-7----------------------5—7---9-9-9-9-9-9-9-9-5-5-5-7-7-7-7---|

|---7-7-7-7-7-7-7-7-------------------5-7-7-7-7-7-7-7-7---5-7---7-7-7-7-7-7-7-7-5-5-5-7-7-7-7---|


VERSE
|-------------------------------------------------------------|

|-------------------------------------------------------------|

|-------------------------------------------------------------|

|---9-9-9-9-9-9-9-9-9-9-9-9-9-9-9-9-7-7-7-7-7-7-7-7---5—5—2---|

|---9-9-9-9-9-9-9-9-9-9-9-9-9-9-9-9-7-7-7-7-7-7-7-7---5—5—2---|

|---7-7-7-7-7-7-7-7-6-6-6-6-6-6-6-6-5-5-5-5-5-5-5-5---3—3—0---|


CHORUS
|-----------------------------------------------------------------------|

|-----------------------------------------------------------------------|

|-------------------7-7-7-9-9-9-9-------------------7-7-7-9-9-9-9-------|

|---9-9-9-9-9-9-9-9-7-7-7-9-9-9-9---9-9-9-9-9-9-9-9-7-7-7-9-9-9-9---9---|

|---9-9-9-9-9-9-9-9-5-5-5-7-7-7-7---9-9-9-9-9-9-9-9-5-5-5-7-7-7-7---9---|

|---7-7-7-7-7-7-7-7-5-5-5-7-7-7-7---7-7-7-7-7-7-7-7-5-5-5-7-7-7-7---7---|


BRIDGE
|-------------------------------------------------------------------------------------|

|-------------------------------------------------------------------------------------|

|-------------------------------------------------------------------------------------|

|---6—6---4---4-4-4---2-2-2-2-2-2-2-2-2-2-2-2-2-2-2-2-2-2-2-2-2-2-2-2-2-2-2-2-2-2-2—--|

|---6—6---4---4-4-4---2-2-2-2-2-2-2-2-2-2-2-2-2-2-2-2-2-2-2-2-2-2-2-2-2-2-2-2-2-2-2—--|

|---4—4---2---2-2-2---0-0-0-0-0-0-0-0-0-0-0-0-0-0-0-0-0-0-0-0-0-0-0-0-0-0-0-0-0-0-0—--|


SOLO 
|-------------------------------------------------------------------------------|

|-------------------------------------------------------------------------------|

|-------------------------------------------------------------------------------|

|---11-11-11-11-11-11-11-11-11-11-11-11-11-11-11-11---9-9-9-9-9-9-9-9—7—7---4---|

|---11-11-11-11-11-11-11-11-11-11-11-11-11-11-11-11---9-9-9-9-9-9-9-9—7—7---4---|

|---9--9--9--9--9--9--9--9--8--8--8--8--8--8--8--8----7-7-7-7-7-7-7-7—5—5---2---|


MODULATED CHORUS
|-----------------------------------------------------|

|-----------------------------------------------------|

|-----------------------------9-9-9--11-11-11-11-11---|

|---11-11-11-11-11-11-11-11---9-9-9--11-11-11-11-11---|

|---11-11-11-11-11-11-11-11---7-7-7—-9--9--9--9--9----|

|---9—-9--9—-9—-9—-9--9—-9----7-7-7--9--9--9--9--9----|


MODULATED BRIDGE
|---------------------------------------------------------------------------------|

|---------------------------------------------------------------------------------|

|---------------------------------------------------------------------------------|

|---8-8---6---6-6-6---4-4-4-4-4-4-4-4-4-4-4-4-4-4-4-4-4-4-4-4-4-4-4-4-4-4-4-4-4---|

|---8-8---6---6-6-6---4-4-4-4-4-4-4-4-4-4-4-4-4-4-4-4-4-4-4-4-4-4-4-4-4-4-4-4-4---|

|---6-6---4---4-4-4---2-2-2-2-2-2-2-2-2-2-2-2-2-2-2-2-2-2-2-2-2-2-2-2-2-2-2-2-2---| 


Another fun song by Sons of Butcher!
Please Rate!
Добавлено: 09.05.2012
Другие материалы по этой песне:
  • Аккорды и текст

Страница создана 09.05.2012
http://primanota.ru/sons-of-butcher/rockload-chords.htm
Привет, Гость.
Предлагаем пройти революционный курс по гитаре.
Подарок от PrimaNota.Ru, забирай!