PrimaNota.ru - самый крупный в мире бесплатный архив песенных текстов, аккордов, табулатур и нот


Sons Of Butcher - Pantydropper - таба, видео

Регистрация Запомнить меня
Войти через:  Facebook Google Twitter Vk Yandex Mail.ru

Sons Of Butcher - Pantydropper - таба, видео

Печатать
Просмотров: 96
Band:Sons Of Butcher
Song:Pantydropper

ok, i've looked though this site and there is no sob songs!
they are the best. Long live SOB!

OPENING RIFF
----------------------------------------|
----------------------------------------|
----------------------------------------|
------0-0----0-----------0-0----0-------|
---6-------6---6------6-------6---6-----|
-7------------------7-------------------|

VERSE 1
Off come the panty's first, followed by the bra and then we're talkin', yeah we're talkin'

PALM MUTED PLAYED OPEN HERE
----------------------------------------------------------------------------------------0-0-0-0------0-0-0-0--|
----------------------------------------------------------------------------------------0-0-0-0------0-0-0-0--|
----------------------------------------------------------------------------------------8-8-8-8------6-6-6-6--|
-9-9-9-9-9-9-9-9-6-6-6-6-6-6-6-6-2-2-2-2-2-2-2-2-4-4-4-4-4—4—9-9-9-9-9-9-6-6-6-7—7-7-7-6----------------------|
-9-9-9-9-9-9-9-9-6-6-6-6-6-6-6-6-2-2-2-2-2-2-2-2-4-4-4-4-4—4—9-9-9-9-9-9-6-6-6-7—7-7-7-6----------------------|
-7-7-7-7-7-7-7-7-4-4-4-4-4-4-4-4-0-0-0-0-0-0-0-0-2-2-2-2-2—2—7-7-7-7-7-7-4-4-4-5---5-5-5-4--------------------|

Now we're bangin'
----------------------------------------|
----------------------------------------|
----------------------------------------|
-----0-0----0----------0-0----0---------|
---6------6---6------6------6---6-------|
-7------------------7-------------------|

HEAVY VERSE RIFF WITH LEAD

LEAD – BOLD = BEND UP * = UP AND BACK
-----------------------------------------------------|
-12—12-12—11---4—4---12-12-12--12---14---------------|
-14—14-14—13—--6-6---14-14-14--14---16---------------|
-----------------------------------------------------|
-----------------------------------------------------|
-----------------------------------------------------|

VERSE 2
But we don't have to talk, I'd prefer it if we don't
PALM MUTED
--------------------------------------------------------------------------------|
--------------------------------------------------------------------------------|
--------------------------------------------------------------------------------|
-9-9-9-9-9-9-9-9-6-6-6-6-6-6-6-6-2-2-2-2-2-2-2-2-4-4-4-4-4----------------------|4—
-9-9-9-9-9-9-9-9-6-6-6-6-6-6-6-6-2-2-2-2-2-2-2-2-4-4-4-4-4----------------------|4—
-7-7-7-7-7-7-7-7-4-4-4-4-4-4-4-4-0-0-0-0-0-0-0-0-2-2-2-2-2----------------------|2—

But them clothes can still come off, don't tell me that they won't so please get naked, you look better naked
PALM MUTED PLAYED OPEN HERE
----------------------------------------------------------------------------------------0-0-0-0-------0-0-0-0--|
----------------------------------------------------------------------------------------0-0-0-0-------0-0-0-0--|
----------------------------------------------------------------------------------------8-8-8-8-------6-6-6-6--|
-9-9-9-9-9-9-9-9-6-6-6-6-6-6-6-6-2-2-2-2-2-2-2-2-4-4-4-4-4—4—9-9-9-9-9-9-6-6-6-7—7-7-7-6-----------------------|
-9-9-9-9-9-9-9-9-6-6-6-6-6-6-6-6-2-2-2-2-2-2-2-2-4-4-4-4-4—4—9-9-9-9-9-9-6-6-6-7—7-7-7-6-----------------------|
-7-7-7-7-7-7-7-7-4-4-4-4-4-4-4-4-0-0-0-0-0-0-0-0-2-2-2-2-2—2—7-7-7-7-7-7-4-4-4-5----5-5-5-4--------------------|

Now let's make it
----------------------------------------|
----------------------------------------|
----------------------------------------|
-----0-0----0----------0-0----0---------|
---6------6---6------6------6---6-------|
-7------------------7-------------------|


CHORUS
All the lovely panty's, droppin to the floor
----------------------------------------------------------------------|
----------------------------------------------------------------------|
----------------------------------------------------------------------|
-9—9-9—9-9-9-6—6-6—6-6-6-7—7-7—7-7-7-6—6-6—6-6-6----------------------|
-9—9-9—9-9-9-6—6-6—6-6-6-7—7-7—7-7-7-6—6-6—6-6-6----------------------|
-7—7-7—7-7-7-4—4-4—4-4-4-5—5-5—5-5-5-4—4-4—4-4-4----------------------|

Sweet back alley handy's, ain't that what rock is for?
----------------------------------------------------------------|
----------------------------------------------------------------|
----------------------------------------------------------------|
-9—9-9—9-9-9-6—6-6—6-6-6-2—2-2—2-2-2-4—4-4—4-4-4—6—6-6—6-6—6-6--|
-9—9-9—9-9-9-6—6-6—6-6-6-2—2-2—2-2-2-4—4-4—4-4-4—6—6-6—6-6—6-6--|
-7—7-7—7-7-7-4—4-4—4-4-4-0—0-0—0-0-0-2—2-2—2-2-2—4—4-4—4-4—4-4--|

BRIDGE
Less talkin' and more panty droppin'
-----------------------------------------------------------------------|
-----------------------------------------------------------------------|
-----------------------------------------------------------------------|
-6-6—6-6-6-6—6-6—6-6-6-6-4-4-4-2—2-2-4-4-4-4-4-4-4-4-------------------|
-6-6—6-6-6-6—6-6—6-6-6-6-4-4-4-2—2-2-4-4-4-4-4-4-4-4-------------------|
-4-4—4-4-4-4—4-4—4-4-4-4-2-2-2-0—0-0-2-0-2-0-2-0-2-0-------------------|
Less talkin' and more panty droppin'
-----------------------------------------------------------------------|
-----------------------------------------------------------------------|
-----------------------------------------------------------------------|
-6-6—6-6-8-9—9-9—9-9-9-9-4-4-4-2—2-2-4-4-4-4-4-4-4-4-------------------|
-6-6—6-6-8-9—9-9—9-9-9-9-4-4-4-2—2-2-4-4-4-4-4-4-4-4-------------------|
-4-4—4-4-6-7—7-7—7-7-7-7-2-2-2-0—0-0-2-0-2-0-2-0-2-0-------------------|

VERSE 2 – WHOLE THING PLAYED OPEN

But if you hafta talk, I'd hope that's its to say
------------------------------------------------------------------------------------|
------------------------------------------------------------------------------------|
------------------------------------------------------------------------------------|
-9-9-9-9-9-9-9-9-6-6-6-6-6-6-6-6-2-2-2-2-2-2-2-2-4-4-4-4-4-4-4-4--------------------|
-9-9-9-9-9-9-9-9-6-6-6-6-6-6-6-6-2-2-2-2-2-2-2-2-4-4-4-4-4-4-4-4--------------------|
-7-7-7-7-7-7-7-7-4-4-4-4-4-4-4-4-0-0-0-0-0-0-0-0-2-2-2-2-2-2-2-2--------------------|

Can I let these panty's drop? And to that I'd say ‘yup'

------------------------------------------------------------------------------------|
------------------------------------------------------------------------------------|
------------------------------------------------------------------------------------|
-9-9-9-9-9-9-9-9-6-6-6-6-6-6-6-6-2-2-2-2-2-2-2-2-4----------------------------------|
-9-9-9-9-9-9-9-9-6-6-6-6-6-6-6-6-2-2-2-2-2-2-2-2-4----------------------------------|
-7-7-7-7-7-7-7-7-4-4-4-4-4-4-4-4-0-0-0-0-0-0-0-0-2----------------------------------|

And I ain't fakin', now all the chicks should get naked

------0-0-0-0---------0-0-0-0---------------|
------0-0-0-0---------0-0-0-0---------------|
------8-8-8-8---------6-6-6-6---------------|
-—9-9-9-9-9-9-6-6-6-7-7-7-7-6---------------|
--9-9-9-9-9-9-6-6-6-7-7-7-7-6---------------|
-—7-7-7-7-7-7-4-4-4-5-5-5-5-4---------------|

Buck naked, buck ass naked

---------------------------------------------------------------------------|
---------------------------------------------------------------------------|
---------------------------------------------------------------------------|
-----0-0----0---------0-----4—4-------0-0-—0------0-0-0-0-0-0-0-0----------|
---6------6---6-----6-------4—4-----6-----6—6--6-6-6-6-6-6-6-6-------------|
-7-----------------7------0—2—2---7-----------7-7-7-7-7-7-7-7--------------|


OUTRO

-------------------------------|
-------------------------------|
-----------------6-6-6---------|
-6-6---4-4-2-2-2—6-6-6---------|
-6-6---4-4-2-2-2—4-4-4---------|
-4-4-0-2-2-0-0-0---------------|

-------------------------------|
-------------------------------|
-----------------6-6-6---------|
-6-6---4-4-2-2-2—6-6-6---------|
-6-6---4-4-2-2-2—4-4-4---------|
-4-4-0-2-2-0-0-0---------------|

------------------------------------|
------------------------------------|
------------------6-6-6—4-----------|
-6-6----4-4-2-2-2—6-6-6—4-----------|
-6-6----4-4-2-2-2—4-4-4—2-----------|
-4-4-0-2-2-0-0-0--------------------|
Добавлено: 24.06.2012
Другие материалы по этой песне:
  • Аккорды и текст

Страница создана 24.06.2012
http://primanota.ru/sons-of-butcher/pantydropper-chords.htm
Привет, Гость.
Предлагаем пройти революционный курс по гитаре.
Подарок от PrimaNota.Ru, забирай!