PrimaNota.ru - самый крупный в мире бесплатный архив песенных текстов, аккордов, табулатур и нот


Sons Of Butcher - Love In The Raw - таба, видео

Регистрация Запомнить меня
Войти через:  Facebook Google Twitter Vk Yandex Mail.ru

Sons Of Butcher - Love In The Raw - таба, видео

Печатать
Просмотров: 88
LOVE IN THE RAW
TAB BY RICKY BUTCHER

OPENING
----------------------------|
--9-9-10-9------------------|
--9-9—9-9---7---------------|
--9-9-----------7--7--------|
--7-7-----------5--7--------|
---------------------5------|

VERSES
V. 1 - I got a crazy way of bangin' your brisket, a method some would call it love in 
raw, I got a better way of bastin' your rump roast, Get your juices flowin!
V. 2 – Your carcass rocks! With tender affection, my love hammer is about to drop, my 
your love, my love, your love is a mystery, taste the fantasy!
-----------------------------------------------------------------------------------|
--9-9-10-10-9-----------------------9-9-10-10-9------------------------------------|
--9-9--9--9--9---7-7----------------9-9--9--9--9----7-7----------------------------|
--9-9--------------7-7—7-7-7------9-9---------------7-7---7-7-7--------------------|
--7-7--------------5-5---7-7-7------7-7---------------5-5---7-7-7------------------|
----------------------------5-5-5---------------------------------5-5-5------------|

PRE CHORUS
P.C. 1 - We've got it its on special you won't have to wait in line!
P.C. 2 – You've got it you're so special your ass is oh so mine!
--------------------------------------------------------------------------------|
--------------------------------------------------------------------------------|
--9-9—9-9-9---7—7-7—7-7-7---6-6—6-6-6—4-----------------------------------------|
--9-9—9-9-9---7—7-7—7-7-7---6-6—6-6-6—4-----------------------------------------|
--7-7—7-7-7---5—5-5—5-5-5---4-4—4-4-4—2-----------------------------------------|
--------------------------------------------------------------------------------|
CHORUS
C. 1 - A dash of lips, a pinch of ass! A handful of love will make this last!
C. 2 – My homemade gravy's about to spray, all over you, you know you love it when goes that way!
----------------------------------------------------------------------------------------|
----------------------------------------------------------------------------------------|
----------------------------------------------------------------------------------------|
--2-2—2-2-2—12—12-12—12-12-12—11-11—11-11-11—9------------------------------------------|
--2-2—2-2-2—12—12-12—12-12-12—11-11—11-11-11—9------------------------------------------|
--0-0—0-0-0—10—10-10—10-10-10—-9—9----9—9—9---7-----------------------------------------|

CHORUS LINE
Hot love in the raw, Raw love in the hot.
---------------------------------------------------------------------------------------------------------|
-----------------------------------------------------------------------9----------9--------9----------9--|
---10-10-10-10-10-10-10-10-—9-9-9-9-9-9-9-9--------9----------9--------9----------9----------------------|
---10-10-10-10-10-10-10-10-—9-9-9-9-9-9-9-9--------7----------7--------7----------7----------------------|
----8---8---8---8---8--8---8---8----7-7-7-7-7-7-7-7-—0------0--0------0-0------0-0-----------------------|
Добавлено: 05.05.2012
Другие материалы по этой песне:
  • Аккорды и текст

Страница создана 05.05.2012
http://primanota.ru/sons-of-butcher/love-in-the-raw-chords.htm
Привет, Гость.
Предлагаем пройти революционный курс по гитаре.
Подарок от PrimaNota.Ru, забирай!