PrimaNota.ru - самый крупный в мире бесплатный архив песенных текстов, аккордов, табулатур и нот


Sons Of Butcher - I Hate Girlfriends - таба, видео

Регистрация Запомнить меня
Войти через:  Facebook Google Twitter Vk Yandex Mail.ru

Sons Of Butcher - I Hate Girlfriends - таба, видео

Печатать
Просмотров: 100
MAIN RIFF – ONE BAR SHOWN, REPEATS
--0-------------------------------------------------0----|
--0-------------------------------------------------0----|
--1------7-7---9-9—9-9-----------------------1-----------|
--2---2--7-7---9-9—9-9-—2----5-----7----2----------------|
--2---2--5-5---7-7—7-7—-2----5-----7----2----------------|
--0---0---------------------------0----3----5----0-------|

ERSES
V.1 – Hookers, you can be my girlfriends if you give me freebies, Girls, you can have my 
as long as I don't see it, Hey as long as you know.
V.2 – Hookers, you can spend the night as long as you don't steal shit, Girls, you can 
me yours as long as you believe it, Hey as long as you know
-0-------------------------------------------0--------------------------------0-----|
-0-------------------------------------------0--------------------------------0-----|
-1-------------------------------------------1--------------------------------1-----|
-2---2-2-2-2-2—2—2------------2----2-2-2-2-2—2—2-----------2------------------------|
-2---2-2-2-2-2—2—2-------0---2----2-2-2-2-2—2—2-----0----2--------------------------|
-0---0-0-0-0-0---0----0—3------0----0-0-0-0-0—0—0—3------0--------------------------|

BRIDGES
But you can be the light of my life or my sun and my moon. Just not my girlfriend.
------------------------------------------------------------------------|
------------------------------------------------------------------------|
------------------------------------------------------------------------|
--7—7---5—5-5-5---7—7—5—5-5-5-5-----------------------------------------|
--7—7---5—5-5-5---7—7—5—5-5-5-5-----------------------------------------|
--5—5---3—3-3-3---5—5—3—3-3-3-3-----------------------------------------|

As Done By Ricky of SOB
Добавлено: 07.03.2012
Другие материалы по этой песне:
  • Аккорды и текст

Страница создана 07.03.2012
http://primanota.ru/sons-of-butcher/i-hate-girlfriends-chords.htm
Привет, Гость.
Предлагаем пройти революционный курс по гитаре.
Подарок от PrimaNota.Ru, забирай!