PrimaNota.ru - самый крупный в мире бесплатный архив песенных текстов, аккордов, табулатур и нот


Sons Of Butcher - Here To Rock - таба, видео

Регистрация Запомнить меня
Войти через:  Facebook Google Twitter Vk Yandex Mail.ru

Sons Of Butcher - Here To Rock - таба, видео

Печатать
Просмотров: 100
MAIN RIFF SOL GUITAR REPEATS
---------------------------------------------------------------------|
---------------------------------------------------------------------|
---------------------------------------------------------------------|
-5—5-5-5-5-5---5—5-5-5-5-5—2—2-2-2-2-2—2—2-2-2-2-2-------------------|
-5—5-5-5-5-5---5—5-5-5-5-5—2—2-2-2-2-2—2—2-2-2-2-2-------------------|
-3—3-3-3-3-3---3—3-3-3-3-3—0—0-0-0-0-0—0—0-0-0-0-0-------------------|

MAIN RIFF RICKY GUITAR
------------------------------------------------------|
-13-13-12------------------13-13-12-------------------|
-12-12-12-12-14-12----12-12-12-12-14-12---------------|
-12-12-12-12-12-12----12-12-12-12-12-12---------------|
------------------------------------------------------|
------------------------------------------------------|

--------------------------------------------|
-10-10---9------------10---10---9-----------|
--9---9—9-9-11-9---9----9—-9-9-11-9---------|
--9—9—9-9--9--9---9—9-—9-9--9--9------------|
--------------------------------------------|
--------------------------------------------|

------------------------------------------------------|
-13-13-12-----------------13-13-12--------------------|
-12-12-12-12-14-12----12-12-12-12-14-12---------------|
-12-12-12-12-12-12----12-12-12-12-12-12---------------|
------------------------------------------------------|
------------------------------------------------------|

-----------------------------------------|
-10-10-9------------10--10---9-----------|
--9--9—9-9-11-9---9----9—9-9-11-9--------|
--9—9—9-9-9--9---9—9—9-9--9--9-----------|
-----------------------------------------|
-----------------------------------------|

VERSE 1

I shoulda died when I hit the goddam ground
---------------------------------------------------------------------|
---------------------------------------------------------------------|
---------------------------------------------------------------------|
-5—5--5-5-5--5—5-5-5--5--5-5-5—-5—2-—2-2----2-2---2-2----------------|
-5—5--5-5-5--5—5-5-5--5--5-5-5—-5---2—-2-2----2-2---2-2--------------|
-3—3--3-3-3--3—3-3-3--3--3-3-3—-3---0—-0-0----0-0---0-0--------------|

But I'm alive now I'm gonna rock this town
---------------------------------------------------------------------|
---------------------------------------------------------------------|
---------------------------------------------------------------------|
-5—5--5-5-5--5—5-5-5--5--5-5-5—-5—2-—2-2----2-2---2-2----------------|
-5—5--5-5-5--5—5-5-5--5--5-5-5—-5---2—-2-2----2-2---2-2--------------|
-3—3--3-3-3--3—3-3-3--3--3-3-3—-3---0—-0-0----0-0---0-0--------------|

PRE CHORUS

When my back hit the rock it woke me up
---------------------------------------------------------------|
---------------------------------------------------------------|
-------------------7—7-7-7-7—9—9-9-9-9-4-4-4-4-4-4-4-4---------|
-5—5-5-5-5—7—7-7-7-7—9—9-9-9-9-4-4-4-4-4-4-4-4-----------------|
-5—5-5-5-5—5—5-5-5-5—7—7-7-7-7-2-2-2-2-2-2-2-2-----------------|
-3—3-3-3-3—5—5-5-5-5—7—7-7-7-7-2-2-2-2-2-2-2-2-----------------|

Now I know why I'm here, I'm here to rock
---------------------------------------------------------------------------------------|
---------------------------------------------------------------------------------------|
-------------------7—7-7-7-7—9—9-9-9-9-4-4-4-4-4-4-4-4---------------------------------|
-5—5-5-5-5—7—7-7-7-7—9—9-9-9-9-4-4-4-4-4-4-4-4—5-5-5-5-5-5-5-5-5-----------------------|
-5—5-5-5-5—5—5-5-5-5—7—7-7-7-7-2-2-2-2-2-2-2-2—5-5-5-5-5-5-5-5-5-----------------------|
-3—3-3-3-3—5—5-5-5-5—7—7-7-7-7-2-2-2-2-2-2-2-2—3-3-3-3-3-3-3-3-3-----------------------|

CHORUS

Sing it with me we're all here for the rock
-----------------------------------------------------------------------|
-----------------------------------------------------------------------|
-----------------------------------------------------------------------|
-5—5-5-5-5—9—9-9-9-9—2—2-2-2—9-10-10-10-10-10-10-10--------------------|
-5—5-5-5-5—9—9-9-9-9—2—2-2-2—9-10-10-10-10-10-10-10--------------------|
-3—3-3-3-3—7—7-7-7-7—0—0-0-0—7--8---8---8---8---8--8--8----------------|

Sing it with me we're all here for the rock
-----------------------------------------------------------------------|
-----------------------------------------------------------------------|
-----------------------------------------------------------------------|
-5—5-5-5-5—9—9-9-9-9—2—2-2-2—9-10-10-10-10-10-10-10--------------------|
-5—5-5-5-5—9—9-9-9-9—2—2-2-2—9-10-10-10-10-10-10-10--------------------|
-3—3-3-3-3—7—7-7-7-7—0—0-0-0—7--8---8--8---8---8---8---8---------------|

Sing it with me we'd all here for the rock, OH!
---------------------------------------------------------------------------------------------------------------------|
---------------------------------------------------------------------------------------------------------------------|
--------------------------------------------------------------------------------------------10-10-10-10-10-10-10-----|
-12-12-12-12-12-12-12-12-12-12-12-12-12-12-12-12-9-9-9-9-9-9-9-10-10-10-10-10-10-10----------------------------------|
-10-10-10-10-10-10-10-10--9---9---9---9---9--9--9---9--7-7-7-7-7-7-7--8---8---8---8---8--8---8-----------------------|
----------------------------------------------------------------------------------------------8---8--8—8---8--8---8--|
Добавлено: 07.03.2012
Другие материалы по этой песне:
  • Аккорды и текст

Страница создана 07.03.2012
http://primanota.ru/sons-of-butcher/here-to-rock-chords.htm
Привет, Гость.
Предлагаем пройти революционный курс по гитаре.
Подарок от PrimaNota.Ru, забирай!