PrimaNota.ru - самый крупный в мире бесплатный архив песенных текстов, аккордов, табулатур и нот


Sons Of Butcher - Actionreaction - таба, видео

Регистрация Запомнить меня
Войти через:  Facebook Google Twitter Vk Yandex Mail.ru

Sons Of Butcher - Actionreaction - таба, видео

Печатать
Просмотров: 78
D TUNING

MAIN RIFF
-------------------------------------------------------------------------------------|
-------------------------------------------------------------------------------------|
-----5------------------5-----------------5-----------------5-----------------8-8-8--|
--0-5-0-3-0-0----0-5-0-3-0-0----0-5-0-3-5-5----0-5-0-3-5-5—0-8-8-8--0-0--------------|
--0-3-0-3-0-0----0-3-0-3-0-0----0-3-0-3-5-5----0-3-0-3-5-5—0-6-6-6--0-0--------------|
--0----0-3-0-0----0----0-3-0-0----0---0-3-5-5----0----0--3-5-5--0----------0-0-------|

So you wanna go? For every action there will be a reaction
--------------------------------------------------------------------------------------|
--------------------------------------------------------------------------------------|
-----5------------------5-----------------5------------------5-----------------8-8-8--|
--0-5-0-3-0-0----0-5-0-3-0-0----0-5-0-3-5-5----0-5-0-3-5-5—0-8-8-8-0-0----------------|
--0-3-0-3-0-0----0-3-0-3-0-0----0-3-0-3-5-5----0-3-0-3-5-5—0-6-6-6-0-0----------------|
--0----0-3-0-0----0----0-3-0-0----0---0-3-5-5----0---0--3-5-5—0---------0-0-----------|

I'm gonna fuckin' blow, just gimme a reason not to beat on…
--------------------------------------------------------------------------------------|
--------------------------------------------------------------------------------------|
-----5------------------5-----------------5------------------5-----------------8-8-8--|
--0-5-0-3-0-0----0-5-0-3-0-0----0-5-0-3-5-5----0-5-0-3-5-5—0-8-8-8-0-0----------------|
--0-3-0-3-0-0----0-3-0-3-0-0----0-3-0-3-5-5----0-3-0-3-5-5—0-6-6-6-0-0----------------|
--0---0-3-0-0-----0----0-3-0-0----0---0-3-5-5----0----0-3-5-5—0---------0-0-----------|

CHORUS

…You, I'm fightin' the ass off you
-------------------------------------------------------------|
-------------------------------------------------------------|
-------------------------------------------------------------|
-8-8—8-8-8-0-0-0-0-0-0-0-6-6-6-6-6-5-5-5-5-5-5-5-------------|
-8-8—8-8-8-0-0-0-0-0-0-0-6-6-6-6-6-5-5-5-5-5-5-5-------------|
-8-8—8-8-8-0-0-0-0-0-0-0-6-6-6-6-6-5-5-5-5-5-5-5-------------|

You, I'm fightin' the shit outta you!
-------------------------------------------------------------|
-------------------------------------------------------------|
-------------------------------------------------------------|
-8-8—8-8-8-0-0-0-0-0-0-0-6-6-6-6-6-5-5---5-5---5-5-----------|
-8-8—8-8-8-0-0-0-0-0-0-0-6-6-6-6-6-5-5---5-5---5-5-----------|
-8-8—8-8-8-0-0-0-0-0-0-0-6-6-6-6-6-5-5---5-5---5-5-----------|

VERSE 2
You think you're gonna win? But these knuckles were made to punch your ass in
So let the shit begin, I don't need a reason not to beat on….


BRIDGE
------------------------------------------|
------------------------------------------|
-7—9-9-7-9-7------------------------------|
--------------------7-5--5-5---0-—0-0-0---|
-5—7-7-5-7-5-7-5--5--5---0-—0-0-0---------|
--------------------7-5--5--5---0-—0-0-0--|

BRIDGE HARMONY LICKS
--------------------------------------------------|
--------------------------------------------------|
-11-12-12-11-12-11-7--9-9-9-11-11-11-11-----------|
--------------------------------------------------|
-9--10-10--9--10-9--5--7-7-7--9—9---9—9-----------|
--------------------------------------------------|
Добавлено: 25.04.2012
Другие материалы по этой песне:
  • Аккорды и текст

Страница создана 25.04.2012
http://primanota.ru/sons-of-butcher/actionreaction-chords.htm
Привет, Гость.
Предлагаем пройти революционный курс по гитаре.
Подарок от PrimaNota.Ru, забирай!