PrimaNota.ru - самый крупный в мире бесплатный архив песенных текстов, аккордов, табулатур и нот


sons of amon - God Mode - таба, видео

Регистрация Запомнить меня
Войти через:  Facebook Google Twitter Vk Yandex Mail.ru

sons of amon - God Mode - таба, видео

Печатать
Просмотров: 72
Sons of Amon Soundcloud : https://soundcloud.com/sons-o-amon
-------------------------------------------------------------------------------
                             "God Mode" - Sons of Amon
-------------------------------------------------------------------------------
Tabbed by: Julian
E-mail:julianaguilar98@gmail.com

Tuning: Drop D (DADGBe)

This is my first Tab, but i think i did a great job. Leave a rating and if there's an error make sure to
contact me and/or put your correction in the comments.
Thank you!
           
************************************
| /   slide up
| \   slide down
| h   hammer-on
| p   pull-off
| x   Mute note
************************************

e||--------------------------------------------------------------------------|)
B||--------------------------------------------------------------------------|)
G||--------------------------------------------------------------------------| )
D||---------------------------------------------------x-x-6-x-5-x-3----------|  ) 
A||---5--3h5/6\5---3h5---0h1--------------------------x-x-6-x-5-x-3----------|   ))
D||-0------------------0-----0--3h5----0--3p0--3/5----x-x-6-x-5-x-3----------|     )
                                                                                   -)-This Repeats x3
e|---------------------------------------------------------------------------|     )
B|---------------------------------------------------------------------------|   )) 
G|---------------------------------------------------------------------------|  )
D|--------------------------------------x-x-x-x--3/5----x-x--6-x-5-x-3-------| ) 
A|----5-3h5/6\5--3h5---0h1--------------x-x-x-x--3/5----x-x--6-x-5-x-3-------|)
D|--0----------------0------0-3h5-------x-x-x-x--3/5----x-x--6-x-5-x-3-------|)

e|---------------------------------------------------------------------------|
B|---------------------------------------------------------------------------|
G|--------------------------------------------2-0----------------------------|
D|--0~---x-x-x-x----xxxxxx------------------0--------x-x-x-x----xxxxxx--x--x-|
A|--0~---x-x-x-x----xxxxxx----------------0----------x-x-x-x----xxxxxx--x--x-|
D|--0~---x-x-x-x----xxxxxx---------------------------x-x-x-x----xxxxxx--x--x-|
                 ^6 mutes here^       
e|---------------------------------------------------------------------------|
B|---------------------------------------------------------------------------|
G|-------2-------------------------------------------------------------------|
D|--0----2----6--5--3-------10h12--10h12--x-x--10h12--10h12--x--x--10h12--10-| x2
A|--0----0----6--5--3-------10h12--10h12--x-x--10h12--10h12--x--x--10h12--10-|
D|--0---------6--5--3-------10h12--10h12--x-x--10h12--10h12--x--x--10h12--10-|

e|---------------------------------------------------------------------------|
B|---------------------------------------------------------------------------|
G|---------------------------------------------------------------------------|
D|--x-x-x-x------x-x--x-x------x-x-x-x-x-x-------x-x--x-x-----x-x-x-x-x-x----|
A|--x-x-x-x------x-x--x-x------x-x-x-x-x-x-------x-x--x-x-----x-x-x-x-x-x----|
D|--x-x-x-x------x-x--x-x------x-x-x-x-x-x-------x-x--x-x-----x-x-x-x-x-x----|

e|---------------------------------------------------------------------------|
B|---------------------------------------------------------------------------|
G|---------------------------------------------------------------------------|
D|--x-x--x-x-----x-x-x-x-x-x-x-x-x-x-----------------------------------------|
A|--x-x--x-x-----x-x-x-x-x-x-x-x-x-x-----------------------------------------|
D|--x-x--x-x-----x-x-x-x-x-x-x-x-x-x-----------------------------------------|

Добавлено: 23.06.2016
Другие материалы по этой песне:
  • Аккорды и текст

Страница создана 23.06.2016
http://primanota.ru/sons-of-amon/god-mode-chords.htm
Привет, Гость.
Предлагаем пройти революционный курс по гитаре.
Подарок от PrimaNota.Ru, забирай!