PrimaNota.ru - самый крупный в мире бесплатный архив песенных текстов, аккордов, табулатур и нот


Sonny Rollins - Blue Seven - таба, видео

Регистрация Запомнить меня
Войти через:  Facebook Google Twitter Vk Yandex Mail.ru

Sonny Rollins - Blue Seven - таба, видео

Печатать
Просмотров: 71
-------------------------------------------------------------------------------
                          Blue Seven - Sonny Rollins
-------------------------------------------------------------------------------
Tuning: Standard

  Bb 7               Eb 7               Bb 7
e|------------------|------------------|------------------|------------------|
B|------------------|------------------|------------------|------------------|
G|-7----------------|------------------|------------------|------------------|
D|-----6------------|----------6-----5-|-6----------------|------------------|
A|------------------|------------7-8---|---7----7---------|------------------|
E|------------------|------------------|------------------|------------------|

  Eb 7                                  Bb 7
e|------------------|------------------|------------------|------------------|
B|------------------|------------------|------------------|------------------|
G|-5-6--------------|------------------|------------------|----------------7-|
D|-----7------------|----------7-----5-|-6----------------|------------------|
A|------------------|------------7-8---|---7----7---------|------------5-6---|
E|------------------|------------------|------------------|------------------|

  F7                 Eb 7               Bb 7               F7
e|------------------|------------------|------------------|------------------|
B|------------------|------------------|------------------|------------------|
G|---4--------------|------------------|------------------|------------------|
D|------------------|----------7-----5-|-6----------------|------------------|
A|------------------|------------7-8---|---7----7---------|------------------|
E|------------------|------------------|------------------|------------------|

Добавлено: 05.08.2015
Вам также может быть интересно:
Другие материалы по этой песне:
  • Аккорды и текст

Страница создана 05.08.2015
http://primanota.ru/sonny-rollins/blue-seven-chords.htm
Привет, Гость.
Предлагаем пройти революционный курс по гитаре.
Подарок от PrimaNota.Ru, забирай!