PrimaNota.ru - самый крупный в мире бесплатный архив песенных текстов, аккордов, табулатур и нот


Sonics - Dirty Old Man - бас-таба, видео

Регистрация Запомнить меня
Войти через:  Facebook Google Twitter Vk Yandex Mail.ru

Sonics - Dirty Old Man - бас-таба, видео

Печатать
Просмотров: 48
Intro                                x2
G------------------|-------------------|------------------|
D------------------|-------------------|------------------|
A------------------|-----1/2-----1/2-2-|-----1/2-----4----|
E------------------|-1/2-----1/2-------|-1/2-----1/2------|


Whole Song        x4
G-------------------|------------------|------------------|
D-------------------|------------------|------------------|
A-----1/2-----1/2-2-|--------------4---|-----1/2-----4----|
E-1/2-----1/2-------|-4-4-4-4-4-4------|-1/2-----1/2------|


Outro            x4
G------------------|
D------------------|
A-----1/2-----4----|
E-1/2-----1/2------|



Order:

Intro      x1
Whole Song x3
Outro      x1
Добавлено: 15.08.2015
Другие материалы по этой песне:
  • Аккорды и текст

Страница создана 15.08.2015
http://primanota.ru/sonics/dirty-old-man-chords.htm
Привет, Гость.
Предлагаем пройти революционный курс по гитаре.
Подарок от PrimaNota.Ru, забирай!