PrimaNota.ru - самый крупный в мире бесплатный архив песенных текстов, аккордов, табулатур и нот


Sonicflood - This Generation - текст песни, таба, бас-таба, видео

Регистрация Запомнить меня
Войти через:  Facebook Google Twitter Vk Yandex Mail.ru

Sonicflood - This Generation - текст песни, таба, бас-таба, видео

Печатать
Просмотров: 155
-------------------------------------------------------------------------------
                        THIS GENERATION – Sonicflood
-------------------------------------------------------------------------------
Tabbed by: 0GibsonLesPaul0
Email: -----

Tuning: Dropped D
______________________________________________________________________________
INTRO
e|---------------------------------------------------------------------------|
B|---------------------------------------------------------------------------|
G|---------------------------------------------------------------------------|
D|---------------------------------------------------------------------------|
A|-2h4-4-4-4-/7-7-7\2h4-4-4-4/7-7-7\2h4-4-4-4-/-7-7-7-\-2h4-4-4-4-/-7-7-7-\--|
D|---------------------------------------------------------------------------|


e|--x-x—-x-x-x--------------7---------------------------------7--------------|
B|o-x-x—-x-x-x--------------------------------------------------------------o|
G|--x-x—-x-x-x---------------------------------------------------------------|
D|--x-x—-x-x-x--2h4-4-4-4p2—--2h4-4-4-4-4-x-2-2-x-2h4-4-4-4p2—--4-7/6--------|
A|o-x-x—-x-x-x--2h4-4-4-4p2—--2h4-4-4-4-4-x-2-2-x-2h4-4-4-4p2—--4-7/6-------o|
D|--x-x—-x-x-x—-2h4-4-4-4p2—--2h4-4-4-4-2-x-2-2-x-2h4-4-4-4p2—--4-7/6--------|


VERSE

e|---------------------------------------------------------------------------|
B|---------------------------6---8---10-------6---8---10----11---------------|
G|----------------------------------------7--------------10------------------|
D|-4-------------------------------------------------------------------------|
A|-4-------------------------------------------------------------------------|
D|-4-------------------------------------------------------------------------|


BRIDGE | 2X

e|---------------------------------------------------------|
B|---------------------------------------------------------|
G|----5-4---------------5-4-x-x---5-4----------------------|
D|--4-5-4-------------4-5-4—x-x-4-5-4-------------5---2----|
A|--4-3-2—0-—0h2p0----4-3-2-x-x-4-3-2--0-—0h2p0---5---2----|
D|--4-----------------4---------4-----------------5---2----|

e|--x-x—-x-x-x--------------7---------------------------------7--------------|
B|--x-x—-x-x-x---------------------------------------------------------------|
G|--x-x—-x-x-x---------------------------------------------------------------|
D|--x-x—-x-x-x--2h4-4-4-4p2—--2h4-4-4-4-4-x-2-2-x-2h4-4-4-4p2—--4-7/6--------|
A|--x-x—-x-x-x--2h4-4-4-4p2—--2h4-4-4-4-4-x-2-2-x-2h4-4-4-4p2—--4-7/6--------|
D|--x-x—-x-x-x—-2h4-4-4-4p2—--2h4-4-4-4-2-x-2-2-x-2h4-4-4-4p2—--4-7/6--------|


VERSE

e|---------------------------------------------------------------------------|
B|---------------------------6---8---10-------6---8---10----11---------------|
G|----------------------------------------7--------------10------------------|
D|-4-------------------------------------------------------------------------|
A|-4-------------------------------------------------------------------------|
D|-4-------------------------------------------------------------------------|

BRIDGE | 2X

e|---------------------------------------------------------|
B|---------------------------------------------------------|
G|----5-4---------------5-4-x-x---5-4----------------------|
D|--4-5-4-------------4-5-4—x-x-4-5-4-------------5---2----|
A|--4-3-2—0-—0h2p0----4-3-2-x-x-4-3-2--0-—0h2p0---5---2----|
D|--4-----------------4---------4-----------------5---2----|


OUTRO (w/effects) 

e|-----------------------------------------------------------------|
B|-----------------------------------------------------------------|
G|-----------------------------------------------------------------|
D|-4-------------4-4-4-4-4-4-4---2h4-2h4---2h4-2h4---2h4-2h4—--4/--|
A|-4—(let ring)------------------2h4-2h4---2h4-2h4---2h4-2h4—--4/--|
D|-4-----------------------------2h4-2h4---2h4-2h4---2h4-2h4--—4/--|
                |-----P.M.----|

e|---------------------------------|
B|---------------------------------|
G|---------------------------------|
D|-2h4-2h4---2h4-2h4---2h4-2h4—4---|
A|-2h4-2h4---2h4-2h4---2h4-2h4—4---|
D|-2h4-2h4---2h4-2h4---2h4-2h4—4---|
| /  slide up
| \  slide down
| h  hammer-on
| p  pull-off
| ~  vibrato
| +  harmonic
| x  Mute note
===============================================================================

Добавлено: 29.03.2012
Другие материалы по этой песне:
  • Аккорды и текст

Страница создана 29.03.2012
http://primanota.ru/sonicflood/this-generation-chords.htm
Привет, Гость.
Предлагаем пройти революционный курс по гитаре.
Подарок от PrimaNota.Ru, забирай!