PrimaNota.ru - самый крупный в мире бесплатный архив песенных текстов, аккордов, табулатур и нот


Sonicflood - Never Forget You - таба, видео

Регистрация Запомнить меня
Войти через:  Facebook Google Twitter Vk Yandex Mail.ru

Sonicflood - Never Forget You - таба, видео

Печатать
Просмотров: 119
Уроки эстрадного вокала в Санкт-Петербурге
----------------------------------------------------------------------------
                       Sonicflood - Never Forget you
----------------------------------------------------------------------------


Tabbed By: 0GibsonLesPaul0
Email: ---------
Tuning: Standard

gtr 1

e|----------------------|---------------|
B|----------------------|---------------|
G|----------------------|---------------|
D|-3-3------------------|-3-3-----------|
A|-3-3------------------|-3-3-----------|
E|-1-1------------------|-1-1-----------|
 |
 |
gtr 2
 |
e|----------------------|---------------|
B|----------------------|-----------5b--|
G|-----4-4b5-hold bend--|-----4-4h5-----|
D|----------------------|---------------|
A|----------------------|---------------|
E|----------------------|---------------|

_________________________________________________________________


gtr1

e|--------------------------------|
B|--------------------------------|
G|-5-5-5-5-5-5-5-5-5-5-5-5-5-5-5--|
D|-5-5—5-5-5-5-5-5-5-5-5-5-5-5-5--|
A|-3-3-3-3-3-3-3-3-3-3-3-3-3-3-3--|
E|--------------------------------|
 |
 |
gtr. 2
 |
e|--------------------------------|
B|--------------------------------|
G|-5-5-/-9-9-9-\-5-5-/-9-9-9/10\9-|
D|-5-5-/-9-9-9-\-5-5-/-9-9-9/10\9-|
A|-3-3-/-7-7-7-\-3-3-/-7-7-7/8 \7-|
E|--------------------------------|

____________________________________________________________________________


gtr 1

e|----------------------|---------------|
B|----------------------|---------------|
G|----------------------|---------------|
D|-3-3------------------|-3-3-----------|
A|-3-3------------------|-3-3-----------|
E|-1-1------------------|-1-1-----------|
 |
 |
gtr 2
 |
 |
e|----------------------|---------------|
B|----------------------|---------------|
G|-----4-4b5-hold bend--|-----4-4p2h5---|
D|----------------------|---------------|
A|----------------------|---------------|
E|----------------------|---------------|

_________________________________________________________________


gtr1

e|--------------------------------|
B|--------------------------------|
G|-5-5-5-5-5-5-5-5-5-5-5-5-5-5-5--|
D|-5-5—5-5-5-5-5-5-5-5-5-5-5-5-5--|
A|-3-3-3-3-3-3-3-3-3-3-3-3-3-3-3--|
E|--------------------------------|
 |
 |
gtr. 2
 |
 |
e|--------------------------------|
B|--------------------------------|
G|-5-5-/-9-9-9-\-5-5-/-9-9-9/10\9-|
D|-5-5-/-9-9-9-\-5-5-/-9-9-9/10\9-|
A|-3-3-/-7-7-7-\-3-3-/-7-7-7/8 \7-|
E|--------------------------------|


| /  slide up
| \  slide down
| h  hammer-on
| p  pull-off
| ~  vibrato
| +  harmonic
| x  Mute note
============================================================================
Добавлено: 07.03.2012
Вам также может быть интересно:
Другие материалы по этой песне:
  • Аккорды и текст

Страница создана 07.03.2012
http://primanota.ru/sonicflood/never-forget-you-chords.htm
Привет, Гость.
Предлагаем пройти революционный курс по гитаре.
Подарок от PrimaNota.Ru, забирай!