PrimaNota.ru - самый крупный в мире бесплатный архив песенных текстов, аккордов, табулатур и нот


Sonicflood - Look To Love - таба, видео

Регистрация Запомнить меня
Войти через:  Facebook Google Twitter Vk Yandex Mail.ru

Sonicflood - Look To Love - таба, видео

Печатать
Просмотров: 89
-------------------------------------------------------------------------------
                        LOOK TO LOVE – Sonicflood 
-------------------------------------------------------------------------------
Tabbed By: 0GibsonLesPaul0

Tuning: Standard


INTRO

e|---------------------------------------------|
B|---------------------------------------------|
G|-6-6-6--------------4---6-6-6-------------4--|
D|-------4--4-4-4-6-7-----------4—4-4-4-6-7----|
A|---------------------------------------------|
E|---------------------------------------------|
 |
 |
 |
 |
e|---------------------------------------------|
B|---------------------------------------------|
G|-----------------4---------------------4-----|
D|-------4--2------4-----------4--2------4-----|
A|-------4--2------2-----------4--2------2-----|
E|-------2--0------------------2--0------------|


VERSE

e|--------------------------------------------------------------------|
B|--------------------------------3-3-x-3-x-3-3-3---3-3-x-3-x-3-3-3---|
G|-----------------2-2-x-2-x-2-2-2------------------------------------|
D|-4-4-x-4-x-4-4-4----------------------------------------------------|
A|--------------------------------------------------------------------|
E|--------------------------------------------------------------------|

e|----------------------------------------------------|
B|----------------------------------------------------|
G|------------------2-2-x-2-x-2-2-2--4-4-x-4-x-4-4-4--|
D|-4-4-x-4-x-4-4-4------------------------------------|
A|----------------------------------------------------|
E|----------------------------------------------------|


CHORUS | 2X

e|---------------------------------|
B|---------------------------------|
G|-7---------9--------7---------9--|
D|-7----7----9--------7----7----9--|
A|-5----7----7--------5----7----7--|
E|------5----0-------------5----0--|


PRE CHORUS

e|---------------------------------------------|
B|---------------------------------------------|
G|-6-6-6--------------4---6-6-6-------------4--|
D|-------4--4-4-4-6-7-----------4—4-4-4-6-7----|
A|---------------------------------------------|
E|---------------------------------------------|
 |
 |
 |
 |
e|---------------------------------------------|
B|---------------------------------------------|
G|-----------------4---------------------4-----|
D|-------4--2------4-----------4--2------4-----|
A|-------4--2------2-----------4--2------2-----|
E|-------2--0------------------2--0------------|


VERSE

e|--------------------------------------------------------------------|
B|--------------------------------3-3-x-3-x-3-3-3---3-3-x-3-x-3-3-3---|
G|-----------------2-2-x-2-x-2-2-2------------------------------------|
D|-4-4-x-4-x-4-4-4----------------------------------------------------|
A|--------------------------------------------------------------------|
E|--------------------------------------------------------------------|

e|----------------------------------------------------|
B|----------------------------------------------------|
G|------------------2-2-x-2-x-2-2-2--4-4-x-4-x-4-4-4--|
D|-4-4-x-4-x-4-4-4------------------------------------|
A|----------------------------------------------------|
E|----------------------------------------------------|


e|---------------------------------|
B|---------------------------------|
G|-----------------4-4-x-4-x-4-4-4-|
D|-4-4-x-4-x-4-4-4-----------------|
A|---------------------------------|
E|---------------------------------|

stay quiet for rest of verse. (couldn't hear the rest)


CHORUS | 2X

e|---------------------------------|
B|---------------------------------|
G|-7---------9--------7---------9--|
D|-7----7----9--------7----7----9--|
A|-5----7----7--------5----7----7--|
E|------5----0-------------5----0--|


BRIDGE | 2.5X (fade out on 3rd time)

e|---------------------------------------------|
B|---------------------------------------------|
G|-6-6-6--------------4---6-6-6-------------4--|
D|-------4--4-4-4-6-7-----------4—4-4-4-6-7----|
A|---------------------------------------------|
E|---------------------------------------------|
 |
 |
 |
 |
e|---------------------------------------------|
B|---------------------------------------------|
G|-----------------4---------------------4-----|
D|-------4--2------4-----------4--2------4-----|
A|-------4--2------2-----------4--2------2-----|
E|-------2--0------------------2--0------------|



e|---------------|
B|---------------|
G|-2-------2-----|
D|-2---2---2---2-|
A|-0---2---0---2-|
E|-----0-------0-|


CHORUS | 4X

e|---------------------------------|
B|---------------------------------|
G|-7---------9--------7---------9--|
D|-7----7----9--------7----7----9--|
A|-5----7----7--------5----7----7--|
E|------5----0-------------5----0--|

Добавлено: 19.05.2012
Другие материалы по этой песне:
  • Аккорды и текст

Страница создана 19.05.2012
http://primanota.ru/sonicflood/look-to-love-chords.htm
Привет, Гость.
Предлагаем пройти революционный курс по гитаре.
Подарок от PrimaNota.Ru, забирай!