PrimaNota.ru - самый крупный в мире бесплатный архив песенных текстов, аккордов, табулатур и нот


Sonica - Por Que - таба, видео

Регистрация Запомнить меня
Войти через:  Facebook Google Twitter Vk Yandex Mail.ru

Sonica - Por Que - таба, видео

Печатать
Просмотров: 212
Intro:

e----------------------------------------------|
B-------------------------------10-8-----------|
G-7-9-11-12--7-9-11-12--7-9-11-7------11-9-----|
D----------------------------------------------|
A----------------------------------------------|
E----------------------------------------------|

D G D G Bm G D A(x2)

Verso:
      G                    A
Porque hoy soñe que estaba junto a ti
   Bm                     A
despierto y veo que no estas aqui
     G                   A
pienso y creo que ayer fui feliz
   Bm                A          G
mirandote y haciendote reir porque...

Coro:
 D            G         Bm            G    A      D
Siempre busco la manera de sacarte de mi cabeza y
                 G           Bm                G   A
nunca encuentro una respuesta para sacarte de mi cabeza

Verso2:
 D                G                 Bm             G
Y ahora yo estoy aqui talvez escribiendo letras tratando de
 A
entender
 D                      G                  Bm            G
que ya no estas junto a mi y eso lo se y ahora solo me pregunto
  A       D
porque, porque...

Coro:
 D            G         Bm            G    A      D
Siempre busco la manera de sacarte de mi cabeza y
                 G           Bm                G   A
nunca encuentro una respuesta para sacarte de mi cabeza
 D
Y ahora...

Puente:
Tal Vez... no existe... una respuesta y ni un por que
e----------------------------------------------|
B----------------------------------------------|
G----------------------------------------------| (x7)
D-------7--------------------------------------|
A-0p2-5----------------------------------------|
E----------------------------------------------|

(Solo)

Tal Vez... no existe... una respuesta y ni un por que
e----------------------------------------------|
B----------------------------------------------|
G----------------------------------------------| (x7)
D-------7--------------------------------------|
A-0p2-5----------------------------------------|
E----------------------------------------------|

Coro:
 D            G         Bm            G    A      D
Siempre busco la manera de sacarte de mi cabeza y
                 G           Bm                G   A     (x2)
nunca encuentro una respuesta para sacarte de mi cabeza

Final:
D G D G Bm G D A D
Y por que... por que

Tab By David Blanco
Caracas, Venezuela
Добавлено: 28.03.2012
Другие материалы по этой песне:
  • Аккорды и текст

Страница создана 28.03.2012
http://primanota.ru/sonica/por-que-chords.htm
Привет, Гость.
Предлагаем пройти революционный курс по гитаре.
Подарок от PrimaNota.Ru, забирай!