PrimaNota.ru - самый крупный в мире бесплатный архив песенных текстов, аккордов, табулатур и нот


Sonic Youth - Theresas Sound-world - таба, видео

Регистрация Запомнить меня
Войти через:  Facebook Google Twitter Vk Yandex Mail.ru

Sonic Youth - Theresas Sound-world - таба, видео

Печатать
Просмотров: 90
Уроки эстрадного вокала в Санкт-Петербурге
Авторы: Kim Gordon, Lee Ranaldo, Thurston Moore, Steve Shelley

Song: Theresa's sound-World
Artist: Sonic Youth
Album: Dirty
Tabbed by Andy Morrison

I dreaded the thought of trying to tab a Sonic Youth song.
Altered Tunings scare me! But its in standard anyways (???hmmmm???)
I loved this song so much, I just had to tab it. Any comments or
feedback and hero-worship is welcome ;)


Intro/Verse A

Guitar 1
   C7
E------------------------------- |
B---------------1-----1-----1--- |
G-----0-----3-----3-----3-----3- |
D---1--------------------------- |
A-------3-3---3-----3-----3----- |
E------------------------------- |

Guitar 2

E----------------------------- |
B-----1---1---1---1---1---1--- |
G---0---0---0---0---0---0---0- |
D----------------------------- |

Verse B

Guitar 1

E-------------------------------------------------------
B-----------4---------------4---------------1-----1-----
G-------------------------------------------------------
D-------6-------6-------6-------6-------3-----3-----3---
A---6-6---6---6---6-6-6---6---6---6-3-3---3-----3-----3-
E-------------------------------------------------------

E--------------------------- |
B-1---1-----------1--------- |
G--------------------------- |
D---3---3-----3-----3---3--- |
A---------3-3---3-----3---3- |
E--------------------------- |

Guitar 2

E----------------------------------------------------- |
B---4--------------6---------------1------------------ |
G---0--------------0---------------0------------------ |
D---6--------------8---------------3------------------ |
A---6--------------8---------------3------------------ |
E----------------------------------------------------- |
This strum these chords along with guitar 1.


Pre-Chorus
                        x2                        x2
E------------------------- | ------------------------- |
B---4---6---8---4---6---1- | -------10-10^(11)-10^1/4- |
G---0---0---0---0---0---0- | ------------------------- |
D---6---8---10--6---8---3- | ---10-------------------- |
A---6---8---10--6---8---3- | ---10-------------------- |
E------------------------- | ---8--------------------- |

Just rapidly strum these
chords in the first section.


Chorus

E------------------------------------------ |
B---8---6--8---11--13--16--18--18^(20)--20- |
G---0---0--0---0---0---0---0--------------- |
D---10--8--10--13--15--18--20--20^(22)--22- |
A---10--8--10--13--15--18--20-----------22- |
E------------------------------------------ |

Strum and bend rapidly.

Song Structure

Intro/Verse A
Verse B
Pre-Chorus
Chorus
Verse A
Verse B
Pre-Chorus
Chorus
Verse A
     
Добавлено: 09.10.2013
Другие материалы по этой песне:
  • Аккорды и текст

Страница создана 09.10.2013
http://primanota.ru/sonic-youth/theresas-sound-world-2-chords.htm
Привет, Гость.
Предлагаем пройти революционный курс по гитаре.
Подарок от PrimaNota.Ru, забирай!