PrimaNota.ru - самый крупный в мире бесплатный архив песенных текстов, аккордов, табулатур и нот


Sonic Youth - Candle - аккорды и текст, таба, видео

Регистрация Запомнить меня
Войти через:  Facebook Google Twitter Vk Yandex Mail.ru

Sonic Youth - Candle - аккорды и текст, таба, видео

Печатать
Просмотров: 230
Авторы: Kim Gordon, Lee Ranaldo, Thurston Moore, Steve Shelley

Candle
Sonic Youth
		   Received: from animal-farm.nevada.edu by redrock.nevada.edu (5.65c/M1.4)
	with SMTP id  AA25794>; Tue, 6 Apr 1993 17:26:02 -0700
Received: from selway.umt.edu by animal-farm.nevada.edu id  AA28137@animal-farm.nevada.edu>; Tue, 6 Apr 1993 17:25:56 -0700
Received: by selway.umt.edu (5.65/DEC-Ultrix/4.3)
	id AA18665; Tue, 6 Apr 1993 18:24:59 -0600
Message-Id:  9304070024.AA18665@selway.umt.edu>
Newsgroups: alt.guitar.tab
In-Reply-To:  1993Apr3.212311.23172@selway.umt.edu>
Organization: University of Montana
Cc:

In article  1993Apr3.212311.23172@selway.umt.edu> you write:
Candle by Sonic Youth

Tuning low to high:
ACCGG#C

how to tune: see "Silver Rocket" post.

C--------4----------4---------2----------2---------------
G#----4---4------4---4-----2---2------2---2---------2---------2--------4-----|
G----0-0---0----0-0---0---0-0---0----0-0---0-----22--2------2--2-----4--4----|
C---0-------0--0---------0-------0--0-------0---------2----2-2--2---4-4--4---|
C-------------0---------0----------0---------0-0-------0-00------0--------0--|
A-----------------------------------------------------------------0--------0-|

Repeat the last arpeggio (SP?)
                            GUITAR I:
C-------------------------|-------------------|
G#------------------------|-------------------|
G-------------------------|-----6-------6-----|
C---44444SL222-2222SL-000-|------------8------|
C---44444SL222-2222SL-000-|---6--6---6----6---|
A-------------------------|--7-7--7-7-7----7--|
                          |PLAY 1ST TIME WITH |
                          |1ST CHORD,2ND W/2ND|
                       C--|--1---0------------|
                       G#-|--1---0------------|
                       G--|--2---1------------|
                       C--|--1---0------------|
                       C--|--1---0------------|
                       A--|--0---0------------|

TWO GUITARS:
C------------7-------|SL9-7-----------0-SL775----0-97-----------88-12-12-----8
G#-----------8-------|SL9--98-6SL44-2-4------64464-9-98-6SL44-2---------11-11-
G--------------9-7-9-|--5=============3============5============7=============
C------2-11==========|--0=============0============0============0=============
C------2-11==========|--0=============0============0============0=============
A---00-0-00==========|--3=============1============3============5=============

C---66666-4444-44-22-|I'M NOT SURE OF THE NUMBER OF 044004'S LISTEN TO THE
G#--55555-0000-00-11-|CD. THE CHORD THAT THEY SMACK FOR THE "SOLO"/NOISE IS
G---XXXXX-0000-00-11-|  099(0)(0)(0) THE LAST CHORD IS 200XXX THEN SLIDE
C---66666-4444-44-22-| DOWN.
C---66666-4444-44-22-|
A---00000-0000-00-00-|

IF YOU POST THIS SOMEWHERE ELSE, PLEASE GIVE ME CREDIT.
thanks.
elric@selway.umt.edu     
Добавлено: 10.09.2013
Другие материалы по этой песне:
  • Аккорды и текст

Страница создана 05.05.2012
http://primanota.ru/sonic-youth/candle-chords.htm
Привет, Гость.
Предлагаем пройти революционный курс по гитаре.
Подарок от PrimaNota.Ru, забирай!