PrimaNota.ru - самый крупный в мире бесплатный архив песенных текстов, аккордов, табулатур и нот


Sonic Youth - Brother James - аккорды и текст, таба, бас-таба, видео

Регистрация Запомнить меня
Войти через:  Facebook Google Twitter Vk Yandex Mail.ru

Sonic Youth - Brother James - аккорды и текст, таба, бас-таба, видео

Печатать
Просмотров: 174
Авторы музыки: Sonic Youth
Авторы текста: Kim Gordon
Brother James
Sonic Youth
		   This is becoming a transcribing addiction.

 BROTHER JAMES

 TUNING - G-G-D-D-Eb-Eb

 GUITAR 1

 Eb ------------------------------------------------
 Eb ------------------------------------------------
 D  -2-(16 TIMES)-1-(16 TIMES)-0-(16 TIMES)---------
 D  -2-("" """"")-1-("" """"")-0-("" """"")---------
 G  ------------------------------------------------
 G  ----------------------------------------0-0-0-0- Whammy bar.

 GUITAR 2

 Eb ------------------------------------------------
 Eb ------------------------------------------------
 D  -2-(16 TIMES)-2-(16 TIMES)-0-(16 TIMES)---------
 D  -2-("" """"")-2-("" """"")-0-("" """"")---------
 G  ------------------------------------------------
 G  ----------------------------------------0-0-0-0- Whammy bar.

 GUITAR 1

 Eb -17-(8 TIMES)-12-(6 TIMES)-14-14-15-(8 TIMES)-9-(8 TIMES)
 Eb -17-(" """"")-12-(" """"")-14-14-15-(" """"")-9-(" """"")
 D  ---------------------------------------------------------
 D  ---------------------------------------------------------
 G  ---------------------------------------------------------
 G  ---------------------------------------------------------

 GUITAR 2

 Eb -0-0-0-0-0-0-
 Eb -0-0-0-0-0-0-
 D  -0-0-0-0-0-0-
 D  -0-0-0-0-0-0-   ETC
 G  -0-0-0-0-0-0-
 G  -0-0-0-0-0-0-

 GUITAR 1&2

 Eb -2-2-2-0-0-0-0-0-0-0-0-0-0-0-0-0-0-
 Eb -2-2-2-0-0-0-0-0-0-0-0-0-0-0-0-0-0-
 D  -2-2-2-0-0-0-0-0-0-0-0-0-0-0-0-0-0-
 D  -2-2-2-0-0-0-0-0-0-0-0-0-0-0-0-0-0-
 G  -2-2-2-0-0-0-0-0-0-0-0-0-0-0-0-0-0-
 G  -2-2-2-0-0-0-0-0-0-0-0-0-0-0-0-0-0-

 arrp. ED.     
Добавлено: 11.09.2013
Другие материалы по этой песне:
  • Аккорды и текст

Страница создана 22.04.2012
http://primanota.ru/sonic-youth/brother-james-chords.htm
Привет, Гость.
Предлагаем пройти революционный курс по гитаре.
Подарок от PrimaNota.Ru, забирай!