PrimaNota.ru - самый крупный в мире бесплатный архив песенных текстов, аккордов, табулатур и нот


Sonic Mayhem - Quad Machine - таба, видео

Регистрация Запомнить меня
Войти через:  Facebook Google Twitter Vk Yandex Mail.ru

Sonic Mayhem - Quad Machine - таба, видео

Печатать
Просмотров: 291
Some people might know this song as the one from Quake 2. It's probably my favorite song in that game. 

Verse:
e----------------------------------------------------------|
B----------------------------------------------------------|
G----------------------------------------------------------|
D----------------------------------------------------------|
A-----5h7-5h7--5h7--2h3-------5h7-5h7--2h3--0h2------------|
E-0000-------00---00---000000--------00---00---------------|

e----------------------------------------------------------|
B----------------------------------------------------------|
G----------------------------------------------------------|
D----------------------------------------------------------|
A-----5h7-5h7--5h7--2h3-------5h7-5h7--2h3--0h2------------|
E-0000-------00---00---000000--------00---00---------------|

e----------------------------------------------------------|
B----------------------------------------------------------|
G----------------------------------------------------------|
D----------------------------------------------------------|
A-----5h7-5h7--5h7--2h3-------5h7-5h7--2h3--0h2------------|
E-0000-------00---00---000000--------00---00---------------|

e----------------------------------------------------------|
B----------------------------------------------------------|
G----------------------------------------------------------|
D----------------------------------------------------------|
A-----5h7-5h7--5h7--2h3-------5h7-5h7--2h3--0h2------------|
E-0000-------00---00---000000--------00---00---------------|

G F# E

x2

Pre-Chorus

Guitar 1
e----------------------------------------------------------|
B----------------------------------------------------------|
G----------------------------------------------------------|
D----------------------------------------------------------|
A----------------------------------------------------------|
E-00-0-000-0-000-00-0-000-0-000----------------------------|

Guitar 2
e----------------------------------------------------------|
B----------------------------------------------------------|
G----------------------------------------------------------|
D----------------------------------------------------------|
A----------------------------------------------------------|
E---------0h3-0h5-0-----------0h5-0h7-0--------------------|

Guitar 1
e----------------------------------------------------------|
B----------------------------------------------------------|
G----------------------------------------------------------|
D----------------------------------------------------------|
A----------------------------------------------------------|
E-00-0-000-0-000-00-0-000-0-000----------------------------|


Guitar 2
e----------------------------------------------------------|
B----------------------------------------------------------|
G----------------------------------------------------------|
D----------------------------------------------------------|
A----------------------------------5-----------------------|
E----------0h3-0h5-0------------567------------------------|

Guitar 1
e----------------------------------------------------------|
B----------------------------------------------------------|
G----------------------------------------------------------|
D----------------------------------------------------------|
A----------------------------------------------------------|
E-00-0-000-0-000-00-0-000-0-000----------------------------|

Guitar 2
e----------------------------------------------------------|
B----------------------------------------------------------|
G----------------------------------------------------------|
D----------------------------------------------------------|
A----------------------------------------------------------|
E---------0h3-0h5-0-----------0h5-0h7-0--------------------|

Guitar 1
e----------------------------------------------------------|
B----------------------------------------------------------|
G----------------------------------------------------------|
D----------------------------------------------------------|
A----------------------------------------------------------|
E-00-0-000-0-000-00-0-000-0-000----------------------------|


Guitar 2
e----------------------------------------------------------|
B----------------------------------------------------------|
G----------------------------------------------------------|
D----------------------------------------------------------|
A----------------------------------5-----------------------|
E----------0h3-0h5-0------------567------------------------|

Chorus:
E D B E A A#
E D B E A A# A# A G E
X2

Verse x2
The second time it goes through the Verse, another guitar plays:

e----------------------------------------------------------|
B----------------------------------------------------------|
G-4-----------5-----------7-----------5--------------------|
D----------------------------------------------------------|
A----------------------------------------------------------|
E----------------------------------------------------------|

Chorus 

Pre-Chorus x3

Verse until end.
Also bringing in:

e----------------------------------------------------------|
B----------------------------------------------------------|
G-4-----------5-----------7-----------5--------------------|
D----------------------------------------------------------|
A----------------------------------------------------------|
E----------------------------------------------------------|

(I find it's fun to play an octive bend to the D; the 7 above)

The last three chords are: G F# F


Rock on
Добавлено: 28.03.2012
Вам также может быть интересно:
Другие материалы по этой песне:

Страница создана 24.02.2012
http://primanota.ru/sonic-mayhem/quad-machine-chords.htm
Привет, Гость.
Предлагаем пройти революционный курс по гитаре.
Подарок от PrimaNota.Ru, забирай!