PrimaNota.ru - самый крупный в мире бесплатный архив песенных текстов, аккордов, табулатур и нот


Songhoy Blues - Al Hassidi Terei - таба, видео

Регистрация Запомнить меня
Войти через:  Facebook Google Twitter Vk Yandex Mail.ru

Songhoy Blues - Al Hassidi Terei - таба, видео

Печатать
Просмотров: 25
-------------------------------------------------------------------------------
                             Al Hassidi Terei - Songhoy Blues
-------------------------------------------------------------------------------
Tabbed by: Louis Gardiner
E-mail: louisgardinerx@hotmail.com

Tuning: Standard

I put a capo on the 5th fret to make it easier

1st bit
e|-------------------------------------------------------------------------------------|
B|----------------------------------8--------------------------------------------------|
G|-------5------------------------5---5------------10---10-----------------------------|
D|-----7---7--------------------7-------7-------12---12---12---------------------------|
A|--------------5h7--5h7---------------------------------------------------------------|
E|--5------------------------8---------------10----------------------------------------|


2nd bit
e|------------------------------------|
B|------------------------------------|
G|------------------------------------|
D|-----5-----------7p5-----5----------|
A|-5h7---7p5-----------5h7---7p5------|
E|-----------8--5----------------8-5--|

havent been able to work out the solos, so help would be appriciated


************************************

| h   hammer-on
| p   pull-off

************************************
Добавлено: 31.12.2015
Другие материалы по этой песне:
  • Аккорды и текст

Страница создана 31.12.2015
http://primanota.ru/songhoy-blues/al-hassidi-terei-chords.htm
Привет, Гость.
Предлагаем пройти революционный курс по гитаре.
Подарок от PrimaNota.Ru, забирай!