PrimaNota.ru - самый крупный в мире бесплатный архив песенных текстов, аккордов, табулатур и нот


Sondre Lerche - Phantom Punch - текст песни, таба, видео

Регистрация Запомнить меня
Войти через:  Facebook Google Twitter Vk Yandex Mail.ru

Sondre Lerche - Phantom Punch - текст песни, таба, видео

Печатать
Просмотров: 106
Author/Artist: Sondre Lerche
Title: Phantom Punch
Transcribed by: Charles Podkanski
Email: charles@podkanski.com

Main riff:
----------------------------|
----------------------------|
----------------------------|
----------------------------|
-5-5--3-5-----5-5--3-5-3----|
----------5--------------5--|
                                                                              
Buildup riff:
-----------------3-|
-----------------3-|
---------------3---|
---4-3-2-----------|
---------3-4-5-----|
-3-----------------|
                                                                              
Verse:
-----5-\-----5-\-----5-\-----5-\-----3-\-----3-\-----------------3-|
-----7-\-----7-\-----7-\-----7-\-----5-\-----5-\-----------------3-|
-----5-\-----5-\-----5-\-----5-\-----3-\-----3-\---------------3---|
-----7-\-----7-\-----7-\-----7-\-----5-\-----5-\---4-3-2-----------|
-3-5-5-\-3-5-5-\-3-5-5-\-3-5-5-\-1-3-3-\-1-3-3-\---------3-4-5-----|
-------------------------------------------------3-----------------|
                                                                              
Chorus:
---3--------------0-------------0-|
-----3-/-5-3-5------3-3-/-5-\-1---|
-2--------------0-----------------|
----------------------------------|
----------------------------------|
----------------------------------|
                                                                              
Chorus (funky guitar)
-12-12-12-12-12-12-12-12-1-0-1-0-1-0-12-12-12-12-12-12-12-12-3-0-3-0-3-5-|
-13-13-13-13-13-13-13-13-3-3-3-3-3-3-13-13-13-13-13-13-13-13-5-5-5-5-5-5-|
-14-14-14-14-14-14-14-14-3-3-3-3-3-3-14-14-14-14-14-14-14-14-5-5-5-5-5-5-|
-------------------------------------------------------------------------|
-------------------------------------------------------------------------|
-------------------------------------------------------------------------|
                                                                              
Buildup chords (let them ring):
--0---0---0---0--|
--5---7---3---5--|
--5---7---3---5--|
--3---5---3---0--|
--5---5---1---0--|
-----------------|
                                                                              
Добавлено: 29.08.2013
Другие материалы по этой песне:
  • Аккорды и текст

Страница создана 29.08.2013
http://primanota.ru/sondre-lerche/phantom-punch-chords.htm
Привет, Гость.
Предлагаем пройти революционный курс по гитаре.
Подарок от PrimaNota.Ru, забирай!