PrimaNota.ru - самый крупный в мире бесплатный архив песенных текстов, аккордов, табулатур и нот


Sonata Arctica - Out In The Fields - таба, видео

Регистрация Запомнить меня
Войти через:  Facebook Google Twitter Vk Yandex Mail.ru

Sonata Arctica - Out In The Fields - таба, видео

Печатать
Просмотров: 165
Авторы: Gary Moore

I DO NOT TAKE CREDIT FOR THIS TAB. I DID NOT MAKE IT. IT'S TAKEN DIRECTLY FROM SONATA 
SITE AND INCLUDES ORIGINAL INFORMATION. UPLOADING IT FOR THE COMMUNITY.

************************************************************************
*            SONATA ARCTICA – OUT IN THE FIELDS (GARY MOORE)           *
*            FROM THE ALBUM UNIA AND THE SINGLE PAID IN FULL           *
************************************************************************
Music By: Sonata Arctica
Transcribed By: Martin Steinkopf (<3 jani <3)
Day tabbed: 15th June 2007
Email: martin_emppu@hotmail.com
Tuning: Bb - Eb - Ab - Db - Gb - Bb - Eb (1/2 step down, 7 string)

---------------------------------------------------------------------------

| Intro                                                     | Verse 1
|-----------------------------------------------------------|--------------|
|-----------------------------------------------------------|--------------|
|-----------------------------------------------------------|---guitars----|
|-----------------------------------------------------------|--enters at---|
|--6~----6~----2~----2~----4\-4--6~----6~----2~----2~----\--|----00:32-----|
|--6~----6~----2~----2~----4\-4--6~----6~----2~----2~----\--|--------------|
|--4~----4~----0~----0~----2\-2--4~----4~----0~----0~----\--|--------------|

                           | Chorus 1        x3 |                 | Riff 1
|--------------------------|--------------------|-----------------|--------|
|--------------------------|--------------------|-----------------|--------|
|--------------------------|--------------------|-----------------|--------|
|------------6~----8-\\\\--|--------4~--4~------|--------6~\\\\\--|--------|
|--4~--------6~----8-\\\\--|--6~----4~--2~--4~--|--2~----6~\\\\\--|--6~----|
|--4~--------4~----6-\\\\--|--6~----2~------4~--|--2~----4~\\\\\--|--6~----|
|--2~----------------------|--4~------------2~--|--0~-------------|--4~----|

                           | Verse 2
|--------------------------|------------------------------------------------|
|--------------------------|------------------------------------------------|
|--------------------------|------------------------------------------------|
|--------------------------|------------------------------------------------|
|--6~----2~----2~----4\-4--|------6------6------6------6------6------6------|
|--6~----2~----2~----4\-4--|------6------6------6------6------6------6—-----|
|--4~----0~----0~----2\-2--|--4-4-4--4-4-4--4-4-4--4-4-4--4-4-4--4-4-4--4-4-|
P.M:                          . .    . .    . .    . .    . .    . .    . .

|--------------------------------------------------------------------------|
|--------------------------------------------------------------------------|
|--------------------------------------------------------------------------|
|--------------------------------------------------------------------------|
|--6------6------2------2------2------2------2------2------2------2--4~----|
|--6------6------2------2------2------2------2------2------2------2--4~----|
|--4--4-4-4--0-0-0--0-0-0--0-0-0--0-0-0--0-0-0--0-0-0--0-0-0--0-0-0--2~----|
P.M:  . .    . .    . .    . .    . .    . .    . .    . .    . .

                                     | Chorus 2        x3 |
|------------------------------------|--------------------|---------------|
|------------------------------------|--------------------|---------------|
|------------------------------------|--------------------|---------------|
|------6~--------------------8~\\\\--|--------4~--4-------|--------6~-XXX-|
|------6~--------------------8~\\\\--|--6~----4~--2~--4~--|--2~----6~-XXX-|
|------4~----6-6-6-6-6-6-6-6-6~\\\\--|--6~----2~------4~--|--2~----4~-XXX-|
|------------------------------------|--4~------------2~--|--0~-----------|
P.M:         . . . . . . . .

| Riff 2        | Interlude 1
|--------------|-----------------------------------------------------------|
|--------------|-----------------------------------------------------------|
|--------------|-----------------------------------------------------------|
|--------------|---------------------------A.H--6-6----6-6----6-6----6-6---|
|--6~----6~----|--2-2----2-2----2-2----2-2--2~--6-6----6-6----6-6----6-6---|
|--6~----6~----|--2-2----2-2----2-2----2-2------4-4----4-4----4-4----4-4---|
|--4~----4~----|--0-0----0-0----0-0----0-0---------------------------------|

|--------------------------------------------------------------------------|
|--------------------------------------------------------------------------|
|-----------------------------------------------------------------6--------|
|--8-8----8-8----8-8----8-8------6-6----6-6----------3--6--8~\\\--4--4--6--|
|--8-8----8-8----8-8----8-8-A.H--4-4----4-4----4~----1--4--6~\\\-----2--4--|
|--6-6----6-6----6-6----6-6--6~----------------4~--------------------------|
|----------------------------------------------2~--------------------------|

                        | Keyboard solo:
|-----------------------|--------------------------------------------------|
|-----------------------|--------------------------------------------------|
|-------------6---------|--------------------------------------------------|
|--6--4-3-----4--4--6~--|--8~----8~----4~----4~----6~----6~----------------|
|--6--4-3-6------2--4~--|--6~----6~----2~----2~----4~----4~----6~----8~----|
|--4--2-1-6-------------|--------------------------------------4~----6~----|
|---------4-------------|--------------------------------------------------|

| Interlude 2                                                    x3 |
|-------------------------------------------------------------------|------|
|-------------------------------------------------------------------|------|
|-------------------------------------------------------------------|------|
|--8-8-8-8-8-8-8-8-8-8-8-8-8-8-8-8-6-6-6-6-6-6-6-6-6-6-6-6-6-6-6-6--|--3-3-|
|--6-6-6-6-6-6-6-6-6-6-6-6-6-6-6-6-4-4-4-4-4-4-4-4-4-4-4-4-4-4-4-4--|--1-1-|
|-------------------------------------------------------------------|------|
|-------------------------------------------------------------------|------|
P.M. . . . . . . . . . . . . . . . . . . . . . . . . . . . . . . .     . .

                                    V      | Chorus 3        x4 | Chorus 4
|----------------------------------A.H-----|--------------------|-----------|
|-----------------------------------9~~~~--|--------------------|-----------|
|------------------------------------------|--------------------|-----------|
|--3-3-3-3-3-3-3-3-3-3-3-3-3-3-6~----------|--------4~--4-------|--------6~-|
|--1-1-1-1-1-1-1-1-1-1-1-1-1-1-6~----------|--6~----4~--2~--4~--|--8~----6~-|
|------------------------------4~----------|--6~----2~------4~--|--8~----4~-|
|------------------------------------------|--4~------------2~--|--6~-------|
P.M. . . . . . . . . . . . . .

        x3 |
|----------|--------------------------------|
|----------|--------------------------------|
|----------|--------------------------------|
|--6~------|--------3~----5~--8~--10~\\\----|
|--4~--6~--|--4~----1~----3~--6~--8~-\\\----|
|------6~--|--4~----------------------------|
|------4~--|--2~----------------------------|

End...

Transcribed by: Martin Steinkopf
Добавлено: 01.03.2012
Другие материалы по этой песне:

Страница создана 01.03.2012
http://primanota.ru/sonata-arctica/out-in-the-fields-chords.htm
Привет, Гость.
Предлагаем пройти революционный курс по гитаре.
Подарок от PrimaNota.Ru, забирай!