PrimaNota.ru - самый крупный в мире бесплатный архив песенных текстов, аккордов, табулатур и нот


Sonata Arctica - It Wont Fade - текст песни, таба, видео

Регистрация Запомнить меня
Войти через:  Facebook Google Twitter Vk Yandex Mail.ru

Sonata Arctica - It Wont Fade - текст песни, таба, видео

Печатать
Просмотров: 170
I DO NOT TAKE CREDIT FOR THIS TAB. I DID NOT MAKE IT. IT'S TAKEN DIRECTLY FROM SONATA 
SITE AND INCLUDES ORIGINAL INFORMATION. UPLOADING IT FOR THE COMMUNITY.

************************************************************************
*               SONATA ARCTICA - IT WON'T FADE                         *
*                 FROM THE ALBUM UNIA                                  *
************************************************************************
Music By: Sonata Arctica
Transcribed By: Martin Steinkopf (<3 jani <3)
Day tabbed: 25th may 2007
Email: martin_emppu@hotmail.com
Tuning: Bb - Eb - Ab - Db - Gb - Bb - Eb (1/2 step down, 7 string)

---------------------------------------------------------------------------

| Intro (00:28)                   x2 |
|------------------------------------|-------------------------------------|
|------------------------------------|-------------------------------------|
|------------------------------------|-------------------------------------|
|------------------------------------|-------------------------------------|
|--3-3-3-3-3-3-3-3-333-3-3-33-3-3-33-|--3-3-3-3-3-3-3-3-333-3-3-33-3-3-33--|
|--3-3-3-3-3-3-3-3-333-3-3-33-3-3-33-|--3-3-3-3-3-3-3-3-333-3-3-33-3-3-33--|
|--1-1-1-1-1-1-1-1-111-1-1-11-1-1-11-|--1-1-1-1-1-1-1-1-111-1-1-11-1-1-11--|
PM:  . . . . . . . ... . . .. . . ..      . . . . . . . ... . . .. . . ..

|--------------------------------------------------------------------------|
|--------------------------------------------------------------------------|
|--------------------------------------------------------------------------|
|--5--5-5-5--5-5-5--7--8--8-8-----------------------7--4--5--5-5-5--5-5-5--|
|--5--5-5-5--5-5-5--7--8--8-8-3--3-3-3--3-3-3--3-3--7--5--5--5-5-5--5-5-5--|
|--3--3-3-3--3-3-3--5--6--6-6-3--3-3-3--3-3-3--3-3—-5--2--3--3-3-3--3-3-3--|
|-----------------------------1--1-1-1--1-1-1--1-1-------------------------|
PM:   . .    . .          . .    . .    . .    . .            . .    . .

|-------------------------------------------------------------------------|
|-------------------------------------------------------------------------|
|-------------------------------------------------------------------------|
|-------------------------------------------------------------------------|
|---7--8--8-8-3--3-3-3--3-3-5--5-5-6--6-6-8--8-8-8--8-8-8--8-8-8--8-8-----|
|---5--7--7-7-3--3-3-3--3-3-5--5-5-6--6-6-8--8-8-8--8-8-8--8-8-8--8-8-----|
|-------------1--1-1-1--1-1-3--3-3-4--4-4-6--6-6-6--6-6-6--6-6-6--6-6-----|
PM:       . .    . .    . .    . .    . .    . .    . .    . .    . .

| Verse 1
|--------------------------------------------------------------------------|
|--------------------------------------------------------------------------|
|--------------------------------------------------------------------------|
|-------5-------5-------------5-------5-------------5-------5--------------|
|-------5-------5-------------5-------5-------------5-------5--------------|
|--333--3--3333-3-33333--333--3--3333-3-33333--333--3--3333-3-33333--333---|
|--------------------------------------------------------------------------|
PM:...      ....   .....  ...     ....   .....  ...     ....   .....  ...

|--------------------------------------------------------------------------|
|--------------------------------------------------------------------------|
|--------------------------------------------------------------------------|
|--5-------5-------------------------------------------5-----5-5-----5-----|
|--5-------5----------3-----3-3-----3-3-----3-3-----3--5-----5-5-----5-----|
|--3--3333-3-33333----3-----3-3-----3-3-----3-3-----3--3-333-3-3-333-3-333-|
|---------------------1-111-1-1-111-1-1-111-1-1-111-1----------------------|
PM:   ....   .....      ...     ...     ...     ...      ...     ...   ...

|-------------------------------------------------------------------------|
|-------------------------------------------------------------------------|
|-------------------------------------------------------------------------|
|----5-5----5------------------------------5------5------7------7---------|
|----5-5----5--6--6--6--6--8--8--8--8------6------6------8------8---------|
|----3-3-33-3--6--6--6-—6-—8--8-—8--8--3-3-3--3-3-3--5-5-5--5-5-5---------|
|--------------4--4--4--4--6--6--6--6-------------------------------------|
PM:      ..                            . .    . .    . .    . .

| Verse 2    | Chorus 1
|------------|--------------------------------------------------------------|
|------------|--------------------------------------------------------------|
|--Verse 2---|--------------------------------------------------------------|
|--is the ---|--5------5------5---------------------------------5-5--5------|
|--same as---|--3--3-3-3--3-3-3--5--6------8------8------8------3-2--3--3-3-|
|--Verse 1---|-------------------5--6------8------8------8------------------|
|------------|-------------------3--4--4-4-6--6-6-6--6-6-6--6-6-------------|
PM:                . .    . .          . .

|--------------------------------------------------------------------------|
|--------------------------------------------------------------------------|
|--------------------------------------------------------------------------|
|--5------5------------3------3------6------3------5--------------------5--|
|--3--3-3-3--6--7------3------3------6------0--0-0-2--2-2-2-2-2-2-2-2-2-2--|
|------------6--7------1--1-1-1--1-1-3--3-3--------------------------------|
|------------4--5--5-5-----------------------------------------------------|
PM:   . .          . .    . .    . .    . .    . .    . . . . . . . . .

        | Verse 3
|-------|------------------------------------------------------------------|
|-------|------------------------------------------------------------------|
|-------|------------------------------------------------------------------|
|--5-5--|------2----2-----2------2-----2----2-----2------2-----2----2------|
|--2-2--|--000-0-00-0-000-0-0000-0-000-0-00-0-000-0-0000-0-000-0-00-0-000--|
|-------|------------------------------------------------------------------|
|-------|------------------------------------------------------------------|
PM:          ...   ..   ...   ....   ...   ..   ...   ....   ...   ..   ...

|--------------------------------------------------------------------------|
|--------------------------------------------------------------------------|
|--------------------------------------------------------------------------|
|-2------2-----2----2-----2------2----------------------5-5-----5-5--5---5-|
|-0-0000-0-000-0-00-0-000-0-0000-0--3-3------3-3--3---3-5-5-----5-5--5---5-|
|-----------------------------------3-3------3-3--3---3-3-3-333-3-3--3---3-|
|-----------------------------------1-1-1111-1-1--1---1--------------------|
PM: ....   ...   ..   ...   ....        ....               ...

                                                       | Chorus 2
|------------------------------------------------------|-------------------|
|------------------------------------------------------|-------------------|
|------------------------------------------------------|-------------------|
|------------------------------5------5------7------7--|--5------5------5--|
|--6--6--6--6--8--8--8--8------6------6------8------8--|--3--3-3-3--3-3-3--|
|--6--6--6-—6-—8--8-—8--8--3-3-3--3-3-3--5-5-5--5-5-5--|-------------------|
|--4--4--4--4--6--6--6--6------------------------------|-------------------|
PM:                        . .    . .    . .    . .          . .    . .

|--------------------------------------------------------------------------|
|--------------------------------------------------------------------------|
|--------------------------------------------------------------------------|
|---------------------------------5-5--5------5------5------------3------3-|
|--5--6------8------8------8------3-2--3--3-3-3--3-3-3--6--7------3------3-|
|--5--6------8------8------8----------------------------6--7------1--1-1-1-|
|--3--4--4-4-6--6-6-6--6-6-6--6-6-----------------------4--5--5-5----------|
PM:      . .    . .    . .    . .         . .    . .          . .    . .

                                                  | Bridge 1
|-------------------------------------------------|------------------------|
|-------------------------------------------------|------------------------|
|-------------------------------------------------|------------------------|
|------6------3------5----------------------5-5-5-|------------------------|
|------6------0--0-0-2--2-2-2-2-2-2-2-2-2-2-2-2-2-|--5-----5--5-5----6-----|
|--1-1-3--3-3-------------------------------------|--3-333-3--3-3----3-333-|
|-------------------------------------------------|------------------------|
PM:. .    . .    . .    . . . . . . . . . .            ...             ...

                                         x4  | Bridge 2
|--------------------------------------------|No guitars until 03:32, when|
|--------------------------------------------|the acoustic guitar enters,-|
|--------------------------------------------|but I can't hear what, and--|
|--------------------------------------------|later some guitar fret noise|
|--6--6-6----8-----8--8-8----8-----8--8-8----|but I can't hear that either|
|--3--3-3----6-666-6--6-6----5-555-5--5-5----|But at 04:16 the distortion-|
|--------------------------------------------|guitar enters again...------|
PM:            ...             ...

| 04:16
|---------------------------------------------------------------------------|
|---------------------------------------------------------------------------|
|---------------------------------------------------------------------------|
|-5-----5-----5-5-4--4------4--7-----7-----7-7-2--2------2--5-----5-----5-5-|
|-5-----5-----5-5-4--4------4--7-----7-----7-7-2--2------2--5-----5-----5-5-|
|-3-3-3-3-3-3-3-3-2--2--2-2-2--5-5-5-5-5-5-5-5-0--0--0-0-0--3-3-3-3-3-3-3-3-|
|-3-3-3-3-3-3-3-3-2--2--2-2-2--5-5-5-5-5-5-5-5-0--0--0-0-0--3-3-3-3-3-3-3-3-|
PM: . .   . .           . .      . .   . .           . .      . .   . .

                                              | Interlude 1
|---------------------------------------------|----------------------------|
|---------------------------------------------|----------------------------|
|---------------------------------------------|----------------------------|
|--8--8------8--4-----4-----4-4--3--3------3--|*-7-7----7-7----9-10-9-7----|
|--8--8------8--4-----4-----4-4--3--3------3--|*------7-----------------10-|
|--6--6--6-6-6--2-2-2-2-2-2-2-2--1--1--1-1-1--|----------------------------|
|--6--6--6-6-6--2-2-2-2-2-2-2-2--1--1—-1-1-1--|----------------------------|
PM:      . .      . .   . .            . .
                                                                          |
|-------------------------------------------------------------------------|
|-------------------------------------------------------------------------|
|-------------------------------------------------------------------------|
|------------------------------4-6-9-7-7----7-9-10~--9-7-----------------*|
|--8-7-5-5----5-5----5-7-8-5-7------------7--------------10-8-7----------*|
|-----------5----------------------------------------------------10-9-10~-|
|-------------------------------------------------------------------------|

| 1.                                                               | 2.
|------------------------------------------------------------------|--------|
|------------------------------------------------------------------|--------|
|------------------------------------------------------------------|--------|
|------------------------------------------9-------------6-9-7-----|--------|
|-----------------------9-10-9-10-12-11-7----11-7---55-8-----------|--3-3---|
|-----10-12-13~-12-8-12---------------------------7----------------|--3-3---|
|--10--------------------------------------------------------------|--1-1-1-|
PM:                                                                       .

|---------------------------------------------------------------------------|
|---------------------------------------------------------------------------|
|---------------------------------------------------------------------------|
|-------------------------------------------------------------5--4----------|
|----3-3-----3-3-----3--5--6------8------8------8------8------5--2--3-3-----|
|----3-3-----3-3-----3--5--6------8------8------8------8------3-----3-3-----|
|--1-1-1-1-1-1-1-1-1-1--3--4--4-4-6--6-6-6--6-6-6--6-6-6--6-6-------1-1-1-1-|
PM:.     . .     . .          . .    . .    . .    . .    . .           . .

|-------------------------------------------------------------------------|
|-------------------------------------------------------------------------|
|-------------------------------------------------------------------------|
|-----------------------------------------------------------5------7------|
|--3-3-----3-3-----3--5--6------8------8------8------8------6------8------|
|--3-3-----3-3-----3--5--6------8------8------8------8------3--3-3-5--5-5-|
|--1-1-1-1-1-1-1-1-1--3--4--4-4-6--6-6-6--6-6-6--6-6-6--6-6---------------|
PM:    . .     . .          . .    . .    . .    . .    . .    . .    . .

                                   | Chorus 3
|----------------------------------|---------------------------------------|
|----------------------------------|---------------------------------------|
|----------------------------------|---------------------------------------|
|--5------------------------5-5-5--|--5------5------5----------------------|
|--2--2-2-2-2-2-2-2-2-2-2-2-2-2-2--|--3--3-3-3--3-3-3--5--6------8------8--|
|----------------------------------|-------------------3--4------8------8--|
|----------------------------------|-------------------3--4--4-4-6--6-6-6--|
PM:   . . . . . . . . . . .              . .    . .          . .    . .

|--------------------------------------------------------------------------|
|--------------------------------------------------------------------------|
|--------------------------------------------------------------------------|
|-------------5-5--5------5------5------------3------3------6------3-------|
|------8------3-2--3--3-3-3--3-3-3--6--7------3------3------6------0--0-0--|
|------8----------------------------6--7------1--1-1-1--1-1-3--3-3---------|
|--6-6-6--6-6-----------------------4--5--5-5------------------------------|
PM:. .    . .         . .    . .          . .    . .    . .    . .    . .

|--------------------------------------------------|
|--------------------------------------------------|
|--------------------------------------------------|
|--5------------------------5-5-5\-----------------|
|--2--2-2-2-2-2-2-2-2-2-2-2-2-2-2\-----------------|
|--------------------------------------------------|
|--------------------------------------------------|
PM:   . . . . . . . . . . .


End...

Transcribed by: Martin Steinkopf
Добавлено: 12.03.2012
Другие материалы по этой песне:

Страница создана 12.03.2012
http://primanota.ru/sonata-arctica/it-wont-fade-chords.htm
Привет, Гость.
Предлагаем пройти революционный курс по гитаре.
Подарок от PrimaNota.Ru, забирай!