PrimaNota.ru - самый крупный в мире бесплатный архив песенных текстов, аккордов, табулатур и нот


Sonata Arctica - In Black And White - текст песни, таба, видео

Регистрация Запомнить меня
Войти через:  Facebook Google Twitter Vk Yandex Mail.ru

Sonata Arctica - In Black And White - текст песни, таба, видео

Печатать
Просмотров: 188
Авторы музыки: Tony Kakko
Авторы текста: Tony Kakko
 I DO NOT TAKE CREDIT FOR THIS TAB. I DID NOT MAKE IT. IT'S TAKEN DIRECTLY FROM SONATA
SITE AND INCLUDES ORIGINAL INFORMATION. UPLOADING IT FOR THE COMMUNITY.

 ************************************************************************
 *               SONATA ARCTICA - IN BLACK AND WHITE                    *
 *                 FROM THE ALBUM UNIA                                  *
 ************************************************************************
Music By: Sonata Arctica
Transcribed By: Martin Steinkopf (<3 jani <3)
Day tabbed: 25th may 2007
Email: martin_emppu@hotmail.com
Tuning: Bb - Eb - Ab - Db - Gb - Bb - Eb (1/2 step down, 7 string)

---------------------------------------------------------------------------

| Intro                        x3 | Intro verse                        x3 |
|---------------------------------|---------------------------------------|
|---------------------------------|---------------------------------------|
|---------------------------------|---------------------------------------|
|--5------------------5-----------|--5--------------------5---------------|
|--3--5-/-7--7~--\----3--5--6--\--|--3--5-/-7--7~--7-7-7--3--5--6~--6-6-6-|
|--3--3-/-5--5~--\----3--3--4--\--|--3--3-/-5--5~--5-5-5--3--3--4~--4-4-4-|
|---------------------------------|---------------------------------------|
P.M:  .                  .              .          . . .     .      . . .

| Verse 1                                                              x2 |
|-------------------------------------------------------------------------|
|-------------------------------------------------------------------------|
|-------------------------------------------------------------------------|
|-----7~---3~---5-5--5--5--5-5-5--5--5-------3~---5-5--5--5--5-5-5--5--5--|
|-----7~---3~---5-5--5--5--5-5-5--5--5--5~---1~---3-3--3--3--3-3-3--3--3--|
|-----5~---1~---3-3--3--3--3-3-3--3--3--5~--------3-3--3--3--3-3-3--3--3--|
|---------------------------------------3~--------------------------------|
P.M:            . .  .  .  . . .  .  .            . .  .  .  . . .  .  .

| Bridge 1                    | Chorus 1
|-----------------------------|--------------------------------------------|
|-----------------------------|--------------------------------------------|
|-----------------------------|--------------------------------------------|
|--3--3\----3--3\---5~---5~---|----------------------------------5------5--|
|--1--1\----1--1\---5~---3~---|------5------5------5------5------5------5--|
|-------------------3~--------|------5------5------5------5--3-3-3--3-3-3--|
|-----------------------------|--3-3-3--3-3-3--3-3-3--3-3-3----------------|
P.M.:                            . .    . .    . .    . .    . .    . .
                                                                       x2 |
|-------------------------------------------------------------------------|
|-------------------------------------------------------------------------|
|-------------------------------------------------------------------------|
|--------5------5------3------3------5------5------3------3------2------2-|
|--------5------5--1-1-1--1-1-1--3-3-3--3-3-3------3------3------3------3-|
|----3-3-3--3-3-3------------------------------1-1-1--1-1-1--0-0-0--0-0-0-|
|-------------------------------------------------------------------------|
P.M.:. .    . .    . .    . .    . .    . .    . .    . .    . .    . .

| Verse 2                                                              x2 |
|-------------------------------------------------------------------------|
|-------------------------------------------------------------------------|
|-------------------------------------------------------------------------|
|-----7~---3~---5-5--5--5--5-5-5--5--5-------3~---5-5--5--5--5-5-5--5--5--|
|-----7~---3~---5-5--5--5--5-5-5--5--5--5~---1~---3-3--3--3--3-3-3--3--3--|
|-----5~---1~---3-3--3--3--3-3-3--3--3--5~--------3-3--3--3--3-3-3--3--3--|
|---------------------------------------3~--------------------------------|
P.M:            . .  .  .  . . .  .  .            . .  .  .  . . .  .  .

| Bridge 2
|--------------------------------------------------------------------------|
|--------------------------------------------------------------------------|
|--------------------------------------------10----------------------------|
|------3------3------3------3-----10-9----------------------------3------3-|
|--1-1-1--1-1-1--1-1-1--1-1-1—-5-5--5--5-5-5---5-5-5-8-7------1-1-1--1-1-1-|
|--------------------------------------------------------8~----------------|
|--------------------------------------------------------------------------|
PM:. .    . .    . .    . .    . .  .  . . .   . . .          . .    . .

|--------------------------------------------------------------------------|
|--------------------------------------------------------------------------|
|--------------------------------------------------------------------------|
|------3------3------5------5------5------5----------3------------3--------|
|--1-1-1--1-1-1--3-3-3--3-3-3--3-3-3--3-3-3--1-1-1-1-1----1-1-1-1-1----5-5-|
|--------------------------------------------------------------------------|
|--------------------------------------------------------------------------|
PM:. .    . .    . .    . .    . .    . .    . . . .      . . . .      . .

|------------------------------------------------------------------------------|
|------------------------------------------------------------------------------|
|------------------------------------------------------------------------------|
|-------7------------7--------5------5------5------5---------------------------|
|---5-5-5----5-5-5-5-5----3-3-3--3-3-3--3-3-3--3-3-3------7------7------7------|
|-----------------------------------------------------5-5-5--5-5-5--5-5-5-- |--|
PM: . .      . . . .      . .    . .    . .    . .    . .    . .    . .

          | Bridge 3
|---------|-----------------------------------------------------------------|
|---------|-----------------------------------------------------------------|
|---------|-----------------------------------------------------------------|
|---------|-----------------------------------------------------------------|
|------7--|-----------------------------------------------------------------|
|--5-5-5--|---------0-0-0-0-1-1-1-1-3-3-3-3-5-5-5-5-3-3-3-3-----------------|
|---------|-3-3-3-3-----------------------------------------0-0-0-0-2-2-2-2-|
PM:. .      . . . . . . . . . . . . . . . . . . . . . . . . . . . . . . . .

                                                             | Bridge 4
|------------------------------------------------------------|--------------|
|------------------------------------------------------------|--------------|
|------------------------------------------------------------|--------------|
|------------------------------------------------------------|--3------3----|
|------------------------------------------------------------|--1--1-1-1--1-|
|----------0-0-0-0-1-1-1-1-3-3-3-3-5-5-5-5-3-3-3-3-----------|--------------|
|--3-3-3-3-----------------------------------------0-0-0-0\--|--------------|
PM:. . . . . . . . . . . . . . . . . . . . . . . . . . . .         . .    .

                                                x2 |Okey, here's the solo |
|--------------------------------------------------|and I can't tab it    |
|--------------------------------------------------|correct yet, so there |
|--------------------------------------------------|are some mistakes in  |
|----5------5------2-------2-------2-------2-------|here.-----------------|
|--1-3--3-3-3--3-3-0-0-0-0-0-0-0-0-0-0-0-0-0-0-0-0-|----------------------|
|--------------------------------------------------|----------------------|
|--------------------------------------------------|----------------------|
PM:.    . .    . .   . . .   . . .   . . .   . . .


| Guitar solo
|-----------------------------------151311----------1113151311-------18p17-|
|--161513----------1315161513-------------11------11----------11-----------|
|--------12------12----------12-------------12--12--------------12---------|
|----------13--13--------------13-------------13------------------13-------|
|------------15------------------15----------------------------------------|
|--------------------------------------------------------------------------|
|--------------------------------------------------------------------------|

|--p15----------------------------------------------------------------------|
|------18p17p15---------------15h17h18p17p15--------------------------------|
|---------------17p15p14h15h17--------------17p15p14---------------14h15h17-|
|----------------------------------------------------17p15p14h15h17---------|
|---------------------------------------------------------------------------|
|---------------------------------------------------------------------------|
|---------------------------------------------------------------------------|

|---------------------------------------------------------------------------|
|---------------------------------------------------------------------------|
|--p15p14----------------------------------------------------------14h15h17-|
|--------17p15p14------------------------------------------14h15h17---------|
|----------------17p15p13--------------------17p15p13h15h17-----------------|
|------------------------17p15p13-------------------------------------------|
|--------------------------------17p15p13\11--------------------------------|

|-----------------------------------------------------------------15h17h18-|
|--15h17h18p17p15-----------------------------------------15h17h18---------|
|----------------17p15p14-------------------------14h15h17-----------------|
|------------------------17p15p14---------14h15h17-------------------------|
|---------------------------------17p15p13---------------------------------|
|--------------------------------------------------------------------------|
|--------------------------------------------------------------------------|

|--p17p15-------------------------------------------------------------------|
|--------18p17p15-----------------------------------------------------------|
|----------------17p15p14---------------------------------------------------|
|------------------------17p15p14-------------------------------------------|
|--------------------------------17p15p13-----------------------------------|
|----------------------------------------17p15p13p15p17p15p13---------------|
|------------------------------------------------------------17p15p13p15p17-|

|
|--------------------------------------------------------------------------|
|------------17b(18)~-b(18)-b(18)-b(18)b17-15-17b(18)b17-15\12-15b(17)b15--|
|------------17b(18)~-b(18)-b(18)-b(18)b17-15-17b(18)b17-15\12-15b(17)b15--|
|--------------------------------------------------------------------------|
|--------------------------------------------------------------------------|
|--------------------------------------------------------------------------|
|--p15p13\11---------------------------------------------------------------|

                                                            T          T
|--------------------------------------------------------------------------|
|--b(18)-b(18)-b(18)b17-15-12~---------------------------------------------|
|--b(18)-b(18)-b(18)b17-15-12~---------------------------------------------|
|-------------------------------*-*----------------------------------------|
|-------------------------------8-5-*-*-------------------------8h10h12-15-|
|-----------------------------------8-6-*-A.H------------------------------|
|---------------------------------------8-6------10p8p6p8p10-13------------|

            T           T
|--------------10h12h13-15-13p12p10h12------|
|-------------------------------------------|
|--10h12h14-17------------------------------|
|-------------------------------------------|
|-------------------------------------------|
|-------------------------------------------|
|-------------------------------------------|

| Keyboard solo, the guitar goes like this                   | Interlude 1
|------------------------------------------------------------|-------------|
|------------------------------------------------------------|-------------|
|------------------------------------------------------------|-------------|
|--3~-----------7------7------7------7--3~-------5~----7~----|-------------|
|--1~-------5-5-5--5-5-5--5-5-5--5-5-5--1~-------3~----4~----|-----5h7-----|
|------------------------------------------------------------|-------------|
|------------------------------------------------------------|--5-5---5-5--|
PM:         . .    . .    . .    . .                            . .   . .

 1.              x2 | 2.
|-------------------|-----------------------------------------------------|
|-------------------|-----------------------------------------------------|
|-------------------|-----------------------------------------------------|
|-------------------|-----------------------------------------------------|
|-------------------|-----------------------------------8p7p5-------------|
|--------------7-7--|-----5h7----------------5-5\-5-5\-------8p7p5\4------|
|--5h7---3-3h5-7-7--|-----------5h7---3-3h5--5-5\-5-5\--------------6-3~--|
|-----5-5-5----5-5--|--5-5---5-5---5-5-5-----3-3\-3-3\--------------------|
PM:   . . .    . .     . .   . .   . . .     . .  . .

| Interlude 2                                             x2 |
|------------------------------------------------------------|-------------|
|------------------------------------------------------------|-------------|
|------------------------------------------------------------|-------------|
|------------------------------------------------------------|-------------|
|--6--6-6-6--6-6-6--6-6-4/6-6-6-6--6-6-6--6-6-6-6-6-4/6-6-6--|--6--4—-2--6-|
|--6--6-6-6--6-6-6--6-6-4/6-6-6-6--6-6-6--6-6-6-6-6-4/6-6-6--|--6--4--2--6-|
|--4--4-4-4--4-4-4--4-4-2/4-4-4-4--4-4-4--4-4-4-4-4-2/4-4-4--|--4--2--0--4-|
PM:   . .    . .    . .     . .    . .    . .   . .     . .

|-------------------------------------------------------------------------|
|-------------------------------------------------------------------------|
|-------------------------------------------------------------------------|
|---------------------------------------------------------5\-6\------3-3\-|
|--2~----4~----6~----8--\--9~----4--5----6-6-6-9-6\---3\--3\-6\-3-3\-1-1\-|
|--2~----4~----7~----9--\--9~----4--5----6-6-6-9-6\---3\-----4\-1-1\------|
|--0~----2~----4~----6--\--7~----2--3----4-4-4-7-4\---1\------------------|
PM:                                      . .   . .              .    .

| Bridge 5          | Chorus 3                            | Chorus 4
|-------------------|-------------------------------------|----------------|
|-------------------|-------------------------------------|----------------|
|---Bells, then ----|-------------------------------------|----------------|
|---Bass and drums--|----------5~------3~---5~---3~---2~--|----------------|
|---enters...-------|--5~------5~------1~---3~---3~---3~--|------5------5--|
|-------------------|--5~------3~----------------1~---0~--|------5------5--|
|-------------------|--3~---------------------------------|--3-3-3--3-3-3--|
PM:                                                          . .    . .


|-------------------------------------------------------------------------|
|-------------------------------------------------------------------------|
|-------------------------------------------------------------------------|
|---------------------5------5------5------5------3------3------5------5--|
|-------5------5------5------5------5------5--1-1-1--1-1-1--3-3-3--3-3-3--|
|-------5------5--3-3-3--3-3-3--3-3-3--3-3-3------------------------------|
    |---3-3-3--3-3-3------------------------------------------------------|
PM: . .    . .    . .    . .    . .    . .    . .    . .    . .    . .


                     x2 | Riff 1
|-----------------------|--------------------------------------------------|
|-----------------------|--------------------------------------------------|
|-----------------------|--------------------------------------------------|
|-----------------------|--5--------------------------5--------------------|
|------3------3------3--|--3--5-/-7~--7-7--7--7--7--7-3--5-/-6~--6-6--6--6-|
|--1-1-1--0-0-0--0-0-0--|--3--3-/-5~--5-5--5--5--5--5-3--3-/-4~--4-4--4--4-|
|-----------------------|--------------------------------------------------|
P.M. .    . .   . .          .       . .  .  .  .  .    .       . .  .  .

     x4 | Intro riff                   x3 |                   |
|-------|---------------------------------|-------------------|
|-------|---------------------------------|-------------------|
|-------|---------------------------------|-------------------|
|-------|--5------------------5-----------|--5----------------|
|--6-6--|--3--5-/-7--7~--\----3--5--6--\--|--3--5-/-7--7~--\--|
|--4-4--|--3--3-/-5--5~--\----3--3--4--\--|--3--3-/-5--5~--\--|
|-------|---------------------------------|-------------------|
P.M. .        .                  .              .


---------------------------------------------------------------------------

| Rhythm under guitar solo
|--------------------------------------------------------------------------|
|--------------------------------------------------------------------------|
|--------------------------------------------------------------------------|
|--5~---6~---3-3--3--3--3-3-3--3--3--3~------------------------------------|
|--3~---6~---1-1--1--1--1-1-1--1--1--3~---4~---6-6--6--6--6-6-6--6--6--4-4-|
|-------4~---------------------------1~---4~---6-6--6--6--6-6-6--6--6--4-4-|
|-----------------------------------------2~---4-4--4--4--4-4-4--4--4--2-2-|
P.M:         . .  .  .  . . .  .  .            . .  .  .  . . .  .  .  . .
|---------------------------------------------------------------------------|
|---------------------------------------------------------------------------|
|---------------------------------------------------------------------------|
|---------------------------------------------------------------------------|
|--4-4-4-4-4-4-4-4-4-4-3-----3---3-3-----3---3-4-4-4-4-4-4-4-4-4-4-4-4-6----|
|--4-4-4-4-4-4-4-4-4-4-1-1-1-1-1-1-1-1-1-1-1-1-4-4-4-4-4-4-4-4-4-4-4-4-6----|
|--2-2-2-2-2-2-2-2-2-2-------------------------2-2-2-2-2-2-2-2-2-2-2-2-4--4-|
P.M. . . . . . . . . .   . .   .     . .   .   . . . . . . . . . . . .    .

|-------------------|
|-------------------|
|-------------------|
|-------------------|
|----6---6-----6----|
|----6---6-----6----|
|--4-4-4-4—4-4-4-4--|
P.M.   .   . .   .


End...

Transcribed by: Martin Steinkopf
Добавлено: 20.03.2012
Другие материалы по этой песне:

Страница создана 25.02.2012
http://primanota.ru/sonata-arctica/in-black-and-white-chords.htm
Привет, Гость.
Предлагаем пройти революционный курс по гитаре.
Подарок от PrimaNota.Ru, забирай!