PrimaNota.ru - самый крупный в мире бесплатный архив песенных текстов, аккордов, табулатур и нот


Sona Fariq - Do Not Return - аккорды и текст, видео

Регистрация Запомнить меня
Войти через:  Facebook Google Twitter Vk Yandex Mail.ru

Sona Fariq - Do Not Return - аккорды и текст, видео

Печатать
Просмотров: 98
Do Not Return
Sona Fariq
C Not Return: Sona Fariq
Tabbed by Martin Marriott - shagadelic091@hotmail.com

This is a great song, great vibe, the lyrics kick ass. If anyone has any 
corrections to this beast, drop me a line or go one better and post another 
version on here. If anyone else has any SONA FARIQ tabs, please post em or 
mail em to me. I think these guys kick ass and need a bit more publicity, id 
love to here from anyone else who is into them.

The main riff is played pretty much through out the song with the other bits 
thrown in occasionally. For the second break, play the first part of the 
riff 7 times and then play the last part and then go into the slow bit.

Intro and main riff:
    D	     A	    C	        D	     A	  C
-------------------------------------------------------
-------------------------------------------------------
--7-7--x-x--2-2--x-x--5-5-----7-7--x-x--2-2--x-x--5-5--
--7-7--x-x--2-2--x-x--5-5-----7-7--x-x--2-2--x-x--5-5--
--5-5--x-x--0-0--x-x--3-3-----5-5--x-x--0-0--x-x--3-3--
-------------------------------------------------------

   D	       A	    C	         A        C          A        C
-------------------------------------------------------------------
-------------------------------------------------------------------
--7-7--x-x--2-2--x-x--5-5--x-x--2-2--x-x--5-5--x-x--2-2--x-x--5-5--
--7-7--x-x--2-2--x-x--5-5--x-x--2-2--x-x--5-5--x-x--2-2--x-x--5-5--
--5-5--x-x--0-0--x-x--3-3--x-x--0-0--x-x--3-3--x-x--0-0--x-x--3-3--
-------------------------------------------------------------------


Chorus riff:
    D	     A	       C	     D	     A	      C
-------------------------------------------------------
-------------------------------------------------------
--7-7--x-x--2-2--x-x--5-5-----7-7--x-x--2-2--x-x--5-5--
--7-7--x-x--2-2--x-x--5-5-----7-7--x-x--2-2--x-x--5-5--
--5-5--x-x--0-0--x-x--3-3-----5-5--x-x--0-0--x-x--3-3--
-------------------------------------------------------

    D	     A	       C	       	G	   F
-------------------------------------3-3-3----1-1-1-1--
-------------------------------------3-3-3----1-1-1-1--
--7-7--x-x--2-2--x-x--5-5--x-x-------4-4-4----2-2-2-2--
--7-7--x-x--2-2--x-x--5-5--x-x---3-/-5-5-5----3-3-3-3--
--5-5--x-x--0-0--x-x--3-3--x-x---3-/-5-5-5----3-3-3-3--
---------------------------------1-/-3-3-3----1-1-1-1--

Break riff: during this a second guitar plays harmonics during this part.
         D5                                                          E5    
F5          G5       A5
---------------------------------------------------------------------
---------------------------------------------------------------------
--5-/-7-7-7-7-7-7-----	play 3 times   9-9-/--10-10-/-12-12-/-14-14--
--------------------en last time play  ------------------------------
--3-/-5-5-5-5-5-5----------------------7-7-/---8-8--/-10-10-/-12-12--
---------------------------------------------------------------------


Bridge: Falling through the sky part .......
   D	      C	        F		       G
---------------------------1--------------1-/-3--
---------------------------1--------------1-/-3--
--7-------/---5------------2--------------2-/-4--
--7-------/---5------------3--------------3-/-5--
--5-------/---3------------3--------------3-/-5--
---------------------------1--------------1-/-3--
     
Добавлено: 21.08.2013
Вам также может быть интересно:
Другие материалы по этой песне:
  • Аккорды и текст

Страница создана 21.08.2013
http://primanota.ru/sona-fariq/do-not-return-chords.htm
Привет, Гость.
Предлагаем пройти революционный курс по гитаре.
Подарок от PrimaNota.Ru, забирай!