PrimaNota.ru - самый крупный в мире бесплатный архив песенных текстов, аккордов, табулатур и нот


Sona Fariq - Brown - аккорды и текст, видео

Регистрация Запомнить меня
Войти через:  Facebook Google Twitter Vk Yandex Mail.ru

Sona Fariq - Brown - аккорды и текст, видео

Печатать
Просмотров: 170
Brown
Sona Fariq
Brown: Sona Fariq
Tabbed by Martin Marriott - shagadelic091@hotmail.com
This is all my own work,

This is another great track form the SONA FARIQs debut album. Great lyrics, 
nice use of vox and melody as well.

When your playing this, try play higher E shapes and messing with the sus 4 
thing, I think that doubling it on a guitar playing E on the 7th fret also 
sounds great.


Main riff:
E	    Esus4		E
--0-0-0-------0--0--0-------0--
--0-0---0-----0--0----0-----0--
--1-1-----1-h-2--2------2-p-1--	   Repeat for most of song
--2-2---------2--2----------2--
--2-2-----------------------2--
--0-0-----------------------0--

Break:
   E					A
----------------------------------------------------------------------
----------------------------------------------2-2-2-2--3-2-0-1--
--1-1---1--1-1---2b---( play twice then)------2-2-2-2--2-2-2-2--
--2-2---2--2-2--------------------------------2-2-2-2--2-2-2-2--
--2-2---2--2-2--------------------------------0-0-0-0--0-0-0-0--
--0-0---0--0-0--------------------------------------------------

Pre chorus:
    Csus2            C#sus2
--3-3--3----------4-4--4-----------
--3-3-----3-------4-4-----4--------
--5-5--------5----6-6--------6-----
--5-5----------5--6-6-----------6--
--3-3-------------4-4--------------
-----------------------------------

Chorus/Outro:

-----------------------
-----------------------
----------------------- 		play however many times.
--2-2------------------
--2-2---2--2--7--7-----
--0-0---3--4--5--5-----
     
Добавлено: 01.06.2013
Другие материалы по этой песне:
  • Аккорды и текст

Страница создана 01.06.2013
http://primanota.ru/sona-fariq/brown-chords.htm
Привет, Гость.
Предлагаем пройти революционный курс по гитаре.
Подарок от PrimaNota.Ru, забирай!