PrimaNota.ru - самый крупный в мире бесплатный архив песенных текстов, аккордов, табулатур и нот


Something With Numbers - We Can Succeed - текст песни, таба, бас-таба, видео

Регистрация Запомнить меня
Войти через:  Facebook Google Twitter Vk Yandex Mail.ru

Something With Numbers - We Can Succeed - текст песни, таба, бас-таба, видео

Печатать
Просмотров: 138
Intro

e-------------------------------------|
B-------------------------------------|
G-------------------44444444-22222222-|
D-66666666-44444444-44444444-22222222-| X2
A-66666666-44444444-22222222-00000000-|
E-44444444-22222222-------------------|
PM........ ........ ........ ........

Bass Bit

Verse

e----------------------------------|
B----------------------------------|
G-------7-8-9-10-11111111-10-9-8-7-|
D-8-888-X-X-X-X--X-X-X-X--X--X-X-X-|
A-8-888-5-6-7-8--9-9-9-9--8--7-6-5-|
E-6-666----------------------------|

e-------------------------------|
B-------------------------------|
G-------7-8-9-10-7-777-6-5-4-3--|
D-8-888-X-X-X-X--X-XXX-X-X-X-X--|
A-8-888-5-6-7-8--5-555-4-3-2-1--|
E-6-666-------------------------|

e----------------------------------|
B----------------------------------|
G-------7-8-9-10-11111111-10-9-8-7-|
D-8-888-X-X-X-X--X-X-X-X--X--X-X-X-|
A-8-888-5-6-7-8--9-9-9-9--8--7-6-5-|
E-6-666----------------------------|


e-------------------------------|
B-------------------------------|
G-------7-8-9-10-7-777-6-5-4-3--|
D-8-888-X-X-X-X--X-XXX-X-X-X-X--|
A-8-888-5-6-7-8--5-555-4-3-2-1--|
E-6-666-------------------------|

Pre Chorus

e------|
B------|
G------|
D-8X88-
A-8X88- X8
E-6X66-

Chorus

e---------------------------------------|
B---------------------------------------|
G---------------------------------------|
D-1010X101010-1010X101010-88X888-88X888-|
A-1010X101010-1010X101010-88X888-88X888-|
E-8-8-X8-8-8--8-8-X8-8-8--66X666-66X666-|

e-----------------------------|
B-----------------------------|
G-----------------------------|
D-99X999-99X999-77X777-77X777-|
A-99X999-99X999-77X777-77X777-|
E-77X777-77X777-55X555-55X555-|


e---------------------------------------|
B---------------------------------------|
G---------------------------------------|
D-1010X101010-1010X101010-88X888-88X888-|
A-1010X101010-1010X101010-88X888-88X888-|
E-8-8-X8-8-8--8-8-X8-8-8--66X666-66X666-|


e-----------------------------|
B-----------------------------|
G-----------------------------|
D-99X999-99X999-77X777-77X777-|
A-99X999-99X999-77X777-77X777-|
E-77X777-77X777-55X555-55X555-|

Post Chorus

e-----------------------------------------|
B-----------------------------------------|
G-----------------------------------------|
D-7777-7-7777-79-10101010-10-10101010-109-| X4
A-7777-7-7777-79-10101010-10-10101010-109-|
E-5555-5-5555-57-8-8-8-8--8--8-8-8-8--8-7-|
pm....   ....    . . . .     . . . .

Play Verse

Play Chorus

Pre Solo

e----------------------------------------------|
B----------------------------------------------|
G----------------10-99-8----------------8-77-6-|
D-1010-1010-10h9----------1010-1010-8h7--------|
A-1010-1010---------------1010-1010------------|
E-8-8--8-8----------------8-8--8-8-------------|


e----------------------------|
B----------------------------|
G----------------------------|
D-1010-1010-10-101010-101010-|
A-1010-1010-10-101010-101010-|
E-8-8--8-8--8--8-8-8--8-8-8--|

e-----------------|
B-----------------|
G-----------------|
D-77-77-7-777-778-|
A-77-77-7-777-777-|
E-55-55-5-555-555-|

e----------------------------------------------|
B----------------------------------------------|
G----------------10-99-8----------------8-77-6-|
D-1010-1010-10h9----------1010-1010-8h7--------|
A-1010-1010---------------1010-1010------------|
E-8-8--8-8----------------8-8--8-8-------------|


e----------------------------|
B----------------------------|
G----------------------------|
D-1010-1010-10-101010-101010-|
A-1010-1010-10-101010-101010-|
E-8-8--8-8--8--8-8-8--8-8-8--|

e-----------------|
B-----------------|
G-----------------|
D-77-77-7-777-778-|
A-77-77-7-777-777-|
E-55-55-5-555-555-|

Solo

e-------------------------------------------------|
B-------------------------------------------------|
G------6-----------6-5-4-------6-----------8-7-6--|
D-7h8-5-7-5-4-7h8-5------7h8-5-7-5-4-7h8-5--------|
A-------------------------------------------------|
E-------------------------------------------------|

e------6-----------6-5-4-------6-----------8-7-6*-|
B-7h8-5-7-5-4-7h8-5------7h8-5-7-5-4-7h8-5--------|
G-------------------------------------------------|
D-------------------------------------------------|
A-------------------------------------------------|
E-------------------------------------------------|
Добавлено: 17.03.2012
Вам также может быть интересно:
Другие материалы по этой песне:
  • Аккорды и текст

Страница создана 17.03.2012
http://primanota.ru/something-with-numbers/we-can-succeed-chords.htm
Привет, Гость.
Предлагаем пройти революционный курс по гитаре.
Подарок от PrimaNota.Ru, забирай!