PrimaNota.ru - самый крупный в мире бесплатный архив песенных текстов, аккордов, табулатур и нот


Something With Numbers - Prelude - таба, видео

Регистрация Запомнить меня
Войти через:  Facebook Google Twitter Vk Yandex Mail.ru

Something With Numbers - Prelude - таба, видео

Печатать
Просмотров: 81
-------------------------------------------------------------------------------
                             PRELUDE – Something With Numbers
-------------------------------------------------------------------------------
Tabbed by: orowsell
Email: orowsell_21@hotmail.com

This is a sik song and cant believe no one has tabbed it yet. Best intro eva. Get
excited robby…..lang!

Tuning: standard

Guitar 1
Part 1
e|-0000000000000000000000222333333p0-----------------------------------------|
B|---------------------------------------------------------------------------|
G|---------------------------------------------------------------------------|
D|---------------------------------------------------------------------------|
A|---------------------------------------------------------------------------|
E|---------------------------------------------------------------------------|

Part 2
E|-000000000000000077755555\3333/5555----------------------------------------|
B|---------------------------------------------------------------------------|
G|---------------------------------------------------------------------------|
D|---------------------------------------------------------------------------|
A|---------------------------------------------------------------------------|
E|---------------------------------------------------------------------------|

Part 3
e|-023--023235320------------------------------------------------------------|
B|---------------------------------------------------------------------------|
G|---------------------------------------------------------------------------|
D|---------------------------------------------------------------------------|
A|---------------------------------------------------------------------------|
E|---------------------------------------------------------------------------|

Part 4
e|-022-02222-2/3—--022-02532023200~~~~~~~~~----------------------------------|
B|---------------------------------------------------------------------------|
G|---------------------------------------------------------------------------|
D|---------------------------------------------------------------------------|
A|---------------------------------------------------------------------------|
E|---------------------------------------------------------------------------|

Guitar 2

e|-----------------------------------------------------------------------------|
B|-----------------------------------------------------------------------------|
G|-----------------------------------------------------------------------------|
D|-222x-2-222x---222x-2-222x----555x-5-555x---555x-5-555557-----x 2------------|
A|-222x-2-222x---222x-2-222x----555x-5-555x---555x-5-555557--------------------|
E|-000x-0-000x---000x-0-000x----333x-3-333x---333x-3-333335--------------------|

Then flows onto something like this which is the next song on the album.
e|---------------------------------------------------------------------------|
B|---------------------------------------------------------------------------|
G|------7777—x 3------------7-99/11------------------------------------------|
D|-22------------------22x---------------------------------------------------|
A|-22------------------22x---------------------------------------------------|
E|-00------------------00x---------------------------------------------------|

Order
Guitar 1
Part 1 x 5
Part 2 x 1
Part 1 x 3
Part 2 x 1
Part 1 x 3
Part 2 x 1
Part 3 x 2
Part 4 x 1
Part 3 x 2
Part 4 x 1

Guitar 2 comes in when part 3 starts


| /  slide up
| \  slide down
| p  pull-off
| ~  let ring

oh my god this song is so tubular


===============================================================================
Добавлено: 31.03.2012
Другие материалы по этой песне:
  • Аккорды и текст

Страница создана 31.03.2012
http://primanota.ru/something-with-numbers/prelude-chords.htm
Привет, Гость.
Предлагаем пройти революционный курс по гитаре.
Подарок от PrimaNota.Ru, забирай!