PrimaNota.ru - самый крупный в мире бесплатный архив песенных текстов, аккордов, табулатур и нот


Something With Numbers - Goodbye Mickey Finn - аккорды и текст, таба, видео

Регистрация Запомнить меня
Войти через:  Facebook Google Twitter Vk Yandex Mail.ru

Something With Numbers - Goodbye Mickey Finn - аккорды и текст, таба, видео

Печатать
Просмотров: 131
Уроки эстрадного вокала в Санкт-Петербурге
Goodbye Mickey Finn
Something With Numbers
Standard Tuning

Intro
e-----------------------------------------------------------------|
B-----------------------------------------------------------------|
G-----6-6-6-6-6-6----9-9-9----7-7-7----6-6-6---4-4---6-6-6---4-4--|
D-----7-7-7-7-7-7----7-7-7----7-7-7----4-4-4---4-4---4-4-4---4-4--|
A-----------------------------------------------------------------|
E-----------------------------------------------------------------|

Verse
                                               
e------------------------------------------------------|
B------------10-10-10----------------------------------|
G----4-4-4---9--9--9----7-7-7----9--11--12--14---------|
D----4-4-4---7--7--7----7-7-7--------------------------|
A----2-2-2--------------5-5-5--------------------------|
E------------------------------------------------------|
       B        A        D

Chorus
e------------------------------------------|
B---------------8--------------------------|
G------4--------7-------7--------6----7----|
D------4--------5-------7--------7----7----|
A------2----------------5--------5----5----|
E------------------------------------------|
       B        G       D        D    D
[Verse 1]
B                        A           D
Dig the ditch Dig the ditch of destiny
B                        A           D
With the spade, with the spade of apathy
B             A               D
Your digging boots will stay clean
B             A               D
Until you realize where you've been

[Chorus 1] 
B                G                    D        D      D
Its not what you do that says who you are
B                G                    D        D      D
The way you do it is who you are
B                G                    D        D      D
As long as the clock keeps ticking, you'll go wherever the wind blows
B                G                    D        D      D
As long as there's life worth living, you'll go wherever you go

[Verse 2]
B                        A           D
Build the wall build the wall of loneliness
B                        A           D
With the brick of hope and trust
B             A               D
Your aching hands will curl up
B             A               D
Then you'll realize what you've done

[Chorus 2]
B                G                    D        D      D
Its not what you do that says who you are
B                G                    D        D      D
The way you do it is who you are
B                G                    D        D      D
As long as the clock keeps ticking, you'll go wherever the wind blows
B                G                    D        D      D
As long as there's life worth living, you'll go wherever you go

[Chorus 3]
                B                            G      
As long as they're beating the drums then the race isn't won
                D                     D         D
Until you've opened your eyes On your ordinary life
B                G                    D        D      D
If the clock keeps ticking you'll go Wherever the wind blows

Solo:

Chorus: 
B                G                    D        D      D
As long as the clock keeps ticking, you'll go wherever the wind blows
B                G                    D        D      D
As long as there's life worth living, you'll go Wherever you go
                B                            G  
As long as they're beating the drums then the race isn't won
                D                     D         D
Until you've opened your eyes on your ordinary life
B                G                    D        D      D
If the clock keeps ticking you'll go Wherever the wind blows
B                G                    D        D      D
As long as the clock keeps ticking, you'll go wherever the wind blows
B                G                    D        D      D
If the clock keeps ticking you'll go Wherever the wind blows

End (on B)

Solo
e--------------------------------------------------------------------------|
B--------------------------------------------------------------------------|
G---14-14-14--14--12--11------14--14--12--11--------11h12p11-----12p11-----|
D------------------------12------------------12--------------12--------12--|
A--------------------------------------------------------------------------|
E--------------------------------------------------------------------------|

e-------------------------------------------|
B-------------------------------------------|
G--12p11-----12p11--------14--12--11--14----|
D--------12--------12-----------------------|
A-------------------------------------------|
E-------------------------------------------|
Добавлено: 23.05.2016
Другие материалы по этой песне:
  • Аккорды и текст

Страница создана 06.05.2012
http://primanota.ru/something-with-numbers/goodbye-mickey-finn-chords.htm
Привет, Гость.
Предлагаем пройти революционный курс по гитаре.
Подарок от PrimaNota.Ru, забирай!