PrimaNota.ru - самый крупный в мире бесплатный архив песенных текстов, аккордов, табулатур и нот


Solstafir - Djakninn - таба, видео

Регистрация Запомнить меня
Войти через:  Facebook Google Twitter Vk Yandex Mail.ru

Solstafir - Djakninn - таба, видео

Печатать
Просмотров: 129
Уроки эстрадного вокала в Санкт-Петербурге
-------------------------------------------------------------------------------
                             Djákninn - Sólstafir
-------------------------------------------------------------------------------
Tabbed by: Viktor Helgi Gizurarson
E-mail: viktorgizurarson@gmail.com

Tuning: E A D G B e
I don't really know what tuning they use so I just used the basic.

| /    slide up
| \    slide down
| h    hammer-on
| p    pull-off
| ~    vibrato


Cm  C   G#  A Asus4 D
3   3   0   0   0   5
4   5   4   5   5   7
5   5   5   6   7   7
5   5   6   7   7   7
3   3   6   7   7   5
0   0   4   5   5   0
 
If you believe there is something wrong about the tabs then comment down below.
However, I aint 100% sure if the second guitar is correct. 

Here is the link: https://www.youtube.com/watch?v=uZhf98IydQ0

*4*Play Four Times*4*
e|-------------------------------------------|
B|-------------------------------------------|
G|-----5---2h4p2-----------1---1p0-----------|
D|---5---5-------5~------2---2-----2---------|
A|-0---------------------------------2h3-0---|
E|---------------------1---------------------|

e|-----------------|-------------------------|
B|-4/5-4---3-------|-------------------------|
G|-5/6-5---4-4-----|-----0-1-----0/1\0-------|
D|-5/6-5---5-5-5---|-------------------0-----|
A|-------2-------5-|-0-1-----1-3-------------|
E|-----------------|-------------------------|

e|-----------------------------|--------------------------------|
B|---------------------3-------|--------------------------------|
G|---5/7-10-9\7-9-7----4-4-----|-----0-1-----0/1-2b-2b-2~-------|
D|---5/7-10-9\7-9-7----5-5-5---|--------------------------------|
A|-1-----------------0-------5-|-0-1-----1-4--------------------|
E|-----------------------------|--------------------------------|


e|----------------------------------|----------------------------------------|
B|----------------------------------|----------------------------------------|
G|-----5---2h4p2---------1---1p0----|-------5---2h4p2---------1---1p0--------|
D|---5---5-------5~----2---2-----2~-|---5-5---5-------5~----2---2-----2------|
A|-5--------------------------------|-0--------------------------------------|
E|-------------------1--------------|---------------------1------------------|

*2*Play Two Times*2*
e|------------------------------------|
B|------------------------------------|
G|-----5---2h4p2---------1---1p0------|
D|---5---5-------5~----2---2-----2~---|
A|-0----------------------------------|
E|-------------------1----------------|


e|------------------------------------------|
B|----4/5-4---3-----------------------------|
G|----5/6-5---4-4----------0-1-----0/1\0----|
D|----5/6-5---5-5-5----------------------0--|
A|-1--------0-------5--0-1-----1-4----------|
E|------------------------------------------|

e|------------------------------------------|
B|----4/5-4---3-----------------------------|
G|----5/6-5---4-4----------0-1-----0/1\0----|
D|----5/6-5---5-5-5----------------------0--|
A|-3--------0-------5--0-1-----1-3----------|
E|------------------------------------------|

e|--------------------------------------------------|
B|----4/5-4---3-------------------------------------|
G|----5/6-5---4-4----------0-1-----0/1-2b-2-2brb----|
D|----5/6-5---5-5-5---------------------------------|
A|-2--------1-------5--0-1-----1-3------------------|
E|--------------------------------------------------|

e|--------------------|----------------------------------------------|
B|----4/5-4---3-------|----------5-5-5--5-5-5---5-5-5--5-5-5---------|
G|----5/6-5---4-4-----|-----0-1--7-7-7--6-6-6---7-7-7--6-6-6---------|
D|----5/6-5---5-5-5---|----------7-7-7--6-6-6---7-7-7--6-6-6---------|
A|-1--------0-------5-|-0-1------5-5-5--4-4-4---5-5-5--4-4-4---------|
E|--------------------|----------------------------------------------|

______________

/// Ég hef gengið | ég hef margan | sopið seyði af 
    langan veg,   | djáknann séð  | af hans reiði,       | mikið reynt en get ei gleymt.
e|----------------------------------------------------|-----------------|
B|----------------------------------------------------|-5-5-5--5-5-5----|
G|----------------------------------------------------|-7-7-7--6-6-6----|
D|----------------------------------------------------|-7-7-7--6-6-6----|
A|----------------------------------------------------|-5-5-5--4-4-4----|
E|-2-----------------1------------0-1-----------------|-----------------|
/// Guitar 1
\\\ Guitar 2
e|-----------------|----------------------------------|-----------------|
B|-8---------------|----------------------------------|-5-5-5--5-5-5----|
G|-8------11----12-|-------6--------------4-----------|-7-7-7--6-6-6----|
D|-8-8-10----12----|---6-7---9-7------4-5---6-5-------|-7-7-7--6-6-6----|
A|-----------------|----------------------------------|-5-5-5--4-4-4----|
E|-----------------|----------------------------------|-----------------|
\\\

_____________

///Þokan geymir     | hvítir hrafnar,  
   gamlar syndir,   | svartir sandar.         | Sligað stolt fjarri heimahögum.
e|----------------------------------------------------|-----------------|
B|----------------------------------------------------|-5-5-5--5-5-5----|
G|----------------------------------------------------|-7-7-7--6-6-6----|
D|----------------------------------------------------|-7-7-7--6-6-6----|
A|----------------------------------------------------|-5-5-5--4-4-4----|
E|-2-----------------1------------------0-1-----------|-----------------|
/// Guitar 1
\\\ Guitar 2
e|-----------------|----------------------------------|-----------------|
B|-8---------------|-----------------5----------------|-5-5-5--5-5-5----|
G|-8------12----12-|-------5---------5----------4-----|-7-7-7--6-6-6----|
D|-8-8-10----12----|---4-5---7-5/3-3-5------3-4---6-5-|-7-7-7--6-6-6----|
A|-----------------|----------------------------------|-5-5-5--4-4-4----|
E|-----------------|----------------------------------|-----------------|
\\\

_____________

    Blóðböndin steytta skeri. Brenndar brýr að baki mér.    Langt er síðan móðinn missti ég.
Guitar 1                      Cm             C               G#                            A     Asus4
Guitar 2
e|-5------------------------|-------------5-5-4-4-4-4-4-|-----------------|
B|-7------------7------7-7--|-------------7-7-6-6-6-6-6-|-----------------|
G|-7------------7------8-7--|-------------7-7-6-6-6-6-6-|-----------------|
D|-7------------7------8-7--|---------------7-6-6-6-6-6-|-----------------|
A|-5----------5----5-5------|-----------------4-4-4-4-4-|-----------------|
E|--------------------------|-1-------------------------|-0---------------|
\\\
_____________

            Gamlir draugar hanga yfir,    skarttans sálmar glymja ótt.     Óttinn boðar sortans endalok.
Guitar 1    D                             Cm                    C       G#                     A      Asus4   

_____________
 



I haven't gotten any further than this; however, it will be updated regularly, and will be finished one day. 


Lyrics for the whole song

Djákninn


Ég hef gengið langan veg,
ég hef margan djáknann séð
sopið seyði af hans reiði,
mikið reynt en get ei gleymt.

Þokan geymir gamlar syndir,
hvítir hrafnar, svartir sandar.
Sligað stolt fjarri heimahögum.

Blóðböndin steytta skeri.
Brenndar brýr að baki mér.
Langt er síðan móðinn missti ég.

Gamlir draugar hanga yfir,
skarttans sálmar glymja ótt.
Óttinn boðar sortans endalok.


************************************

| /   slide up
| \   slide down
| h   hammer-on
| p   pull-off
| ~   vibrato
| +   harmonic
| x   Mute note
| b   Bend
| pb  Pre-bend
| br  Bend release
| pbr Pre-bend release
| brb Bend release bend

************************************
Добавлено: 13.06.2016
Другие материалы по этой песне:
  • Аккорды и текст

Страница создана 13.06.2016
http://primanota.ru/solstafir/djakninn-chords.htm
Привет, Гость.
Предлагаем пройти революционный курс по гитаре.
Подарок от PrimaNota.Ru, забирай!