PrimaNota.ru - самый крупный в мире бесплатный архив песенных текстов, аккордов, табулатур и нот


Solomon Kane - The Dread - таба, видео

Регистрация Запомнить меня
Войти через:  Facebook Google Twitter Vk Yandex Mail.ru

Solomon Kane - The Dread - таба, видео

Печатать
Просмотров: 80
-------------------------------------------------------------------------------
                            THE DREAD - Solomon Kane
-------------------------------------------------------------------------------
Tabbed by: Golgathor

Tuning: B E A D F# B

INTRO
b ||-----------------------------------------|
F#||-----------------------------------------|
D ||-----------------------------------------|
A ||-----------------------------------------|
E ||----------7------------------------------|
B ||-0-------------7----6--------5--b--r--3--|

b |--------------------------------------------||
F#|--------------------------------------------||
D |--------------------------------------------||
A |--------------------7tr8--------7--b--r--5--||
E |----------7---------------------------------||
B |-0-------------7----------------------------||

VERSE
b ||----------------------------------------------------------------|
F#||----------------------------------------------------------------|
D ||----------------------------------------------------------------|
A ||-7/9-----9~~----7/9-----12\9-----7/9-----9~~----7/9-------------|
E ||-5/7-----7~~----5/7-----10\7-----5/7-----7~~----5/7-----5-------|
B ||-----0-0----0-0-----0-0------0-0-----0-0----0-0-----0-0---7-6-7-|

b |----------------------------------------------------------||
F#|----------------------------------------------------------||
D |----------------------------------------------------------||
A |-7/9-----9~~----7/9-----12\9-----7/9-----9~~--------------||
E |-5/7-----7~~----5/7-----10\7-----5/7-----7~~--------------||
B |-----0-0----0-0-----0-0------0-0-----0-0----0-0-5~~~~6~~~~||

BRIDGE
b ||--------------------------------------------------|
F#||--------------------------------------------------|
D ||--------------------------------------------------|
A ||------------------------------------------7--6----|
E ||--------------------------------5--5h7------------|
B ||-0----5-3-5----5-3-5~~0--5-6-7--------------------|

b |----------------------------------------------------||
F#|----------------------------------------------------||
D |----------------------------------------------------||
A |----------------------------------------------------||
E |--------------------------------5--5h7----5---------||
B |-0----5-3-5----5-3-5~~0--5-6-7---------------7-6-5--||

CHORUS
b ||--------------------------------------------------------------------|
F#||--------------------------------------------------------------------|
D ||--------------------------------------------------------------------|
A ||-7/9-9-9-9~~----5tr6----------------7/9-9-9-9~~----5tr6------8~~----|
E ||-5/7-7-7-7~~--------------5tr6------5/7-7-7-7~~---------------------|
B ||------------0-0-------0-0-------0-0------------0-0-------0-0----0-0-|

b |--------------------------------------------------------------||
F#|--------------------------------------------------------------||
D |--------------------------------------------------------------||
A |-7/9-9-9-9~~----5tr6----------------8------8------8\7---------||
E |-5/7-7-7-7~~--------------5tr6------6------6------6\5---8\7---||
B |------------0-0-------0-0-------0-0----0-0----0-0-------6\5---||


************************************

| /   slide up
| \   slide down
| h   hammer-on
| p   pull-off
| ~   vibrato
| +   harmonic
| x   Mute note
| b   Bend
| pb  Pre-bend
| br  Bend release
| pbr Pre-bend release
| brb Bend release bend
| tr  Trill

************************************
Добавлено: 22.09.2015
Другие материалы по этой песне:
  • Аккорды и текст

Страница создана 22.09.2015
http://primanota.ru/solomon-kane/dread-chords.htm
Привет, Гость.
Предлагаем пройти революционный курс по гитаре.
Подарок от PrimaNota.Ru, забирай!