PrimaNota.ru - самый крупный в мире бесплатный архив песенных текстов, аккордов, табулатур и нот


Solitude Aeturnus - Scent Of Death - таба, видео

Регистрация Запомнить меня
Войти через:  Facebook Google Twitter Vk Yandex Mail.ru

Solitude Aeturnus - Scent Of Death - таба, видео

Печатать
Просмотров: 127
-----------------------------------------------------------------------------------
Song: Scent of Death
Band: Solitude Aeturnus
Album: Alone
Tabbed by: TrollFaceJesus
E-mail: trollfacejesus@gmail.com


Hey everyone, this is my tab for this song, and I think it sounds pretty awesome.
All of the rhythm sections in the song are here, but I didn't tab out the solo.
Hopefully everything in here is accurate, and you guys find this tab to be helpful!
If you have any comments, questions or corrections to point out, please feel free
to leave a message here, or to send me an email! :D



Tuning: D-Standard



Intro (0:00)
============

Intro [Part I] (Guitar 1)

 1 e + a 2 e + a 3 e + a  1 e + a 2 e + a 3 e + a  1 e + a 2 e + a 3 e + a  1 e + a 2 e + a 3 e + a
|-----------------------||-----------------------||-----------------------||-----------------------|
|-----------------------||-----------------------||-----------------------||-----------------------|
|----------------1------||1----------------------||-----------------------||-----------------------| x4
|--------2---3----------||----3---2-------3------||--------0---2---3------||3---2---0-------2------|
|-----------------------||-----------------------||-----------------------||-----------------------|
|0----------------------||-----------------------||0----------------------||-----------------------|


Intro [Part I] (Guitar 2)

 1 e + a 2 e + a 3 e + a  1 e + a 2 e + a 3 e + a  1 e + a 2 e + a 3 e + a  1 e + a 2 e + a 3 e + a
|----------------4------||4----------------------||-----------------------||-----------------------|
|--------5---6----------||----6---5-------6------||--------3---5---6------||6---5---3-------5------|
|-----------------------||-----------------------||-----------------------||-----------------------| x2
|-----------------------||-----------------------||-----------------------||-----------------------|
|-----------------------||-----------------------||-----------------------||-----------------------|
|-----------------------||-----------------------||-----------------------||-----------------------|

[Guitar 2 comes in after Guitar 1 plays "Intro [Part I]" twice.]





Intro [Part II] (Guitar 1)

 1 e + a 2 e + a 3 e + a  1 e + a 2 e + a 3 e + a  1 e + a 2 e + a 3 e + a
|-----------------------||-----------------------||-----------------------|
|-----------------------||-----------------------||-----------------------|
|-----------------------||-----------------------||-----------------------| x1
|-----------------------||-----------------------||-----------------------|
|-----------------------||-----------------------||-----------------------|
|0----------------------||-----------------------||-----------------------|


Intro [Part II] (Guitar 2)

 1 e + a 2 e + a 3 e + a  1 e + a 2 e + a 3 e + a  1 e + a 2 e + a 3 e + a
|-----------------------||-----------------------||-----------------------|
|-----------------------||-----------------------||-----------------------|
|-----------------------||-----------------------||-----------------------| x1
|2----------------------||-----------------------||-----------------------|
|-----------------------||-----------------------||-----------------------|
|-----------------------||-----------------------||-----------------------|





Intro [Part III] (Guitar 1)

 1 e + a 2 e + a 3 e + a  1 e + a 2 e + a 3 e + a  1 e + a 2 e + a 3 e + a  1 e + a 2 e + a 3 e + a
|-----------------------||-----------------------||-----------------------||-----------------------|
|-----------------------||-----------------------||-----------------------||-----------------------|
|----------------1------||1----------------------||-----------------------||-----------------------| x2
|--------2---3----------||----3---2-------3------||--------0---2---3------||3---2---0-------2------|
|-----------------------||-----------------------||-----------------------||-----------------------|
|0----------------------||-----------------------||0---0------------------||-----------------------|
                                                   .   .

Intro [Part III] (Guitar 2)

 1 e + a 2 e + a 3 e + a  1 e + a 2 e + a 3 e + a  1 e + a 2 e + a 3 e + a  1 e + a 2 e + a 3 e + a
|-----------------------||-----------------------||-----------------------||-----------------------|
|-----------------------||-----------------------||-----------------------||-----------------------|
|-----------------------||-----------------------||-----------------------||-----------------------| x2
|-----------------------||-----------------------||-----------------------||-----------------------|
|2----------------------||-----------------------||2---2------------------||-----------------------|
|0----------------------||-----------------------||0---0------------------||------------0-/-12-\---|
                                                   .   .                                ^   ^
                                                                        [Play this on the second time only]



Main Riff (1:03)
================

Riff 1 (Guitar 1 & 2)

 1 e + a 2 e + a 3 e + a  1 e + a 2 e + a 3 e + a  1 e + a 2 e + a 3 e + a  1 e + a 2 e + a 3 e + a
|-----------------------||-----------------------||-----------------------||-----------------------|
|-----------------------||-----------------------||-----------------------||-----------------------|
|----------------1------||1----------------------||-----------------------||-----------------------| x2
|--------2---3----------||----3---2-------3------||--------0---2---3------||3---2---0-------2------|
|-----------------------||-----------------------||-----------------------||-----------------------|
|0----------------------||-----------------------||0----------------------||-----------------------|




Riff 2 (Guitar 1 & 2)

 1 e + a 2 e + a 3 e + a 4 e + a  1 e + a 2 e + a 3 e + a 4 e + a
|-------------------------------||-------------------------------|
|-------------------------------||-------------------------------|
|-------------------------------||----------------1--------------| x1
|-------------------------------||----------------------3-----2--|
|2------------------------------||-------------------------------|
|0------------------------------||-------------------------------|




Verse I (1:26)
==============

Riff 3 (Guitar 1 & 2)

 1 + 2 + 3 + 4 +  1 + 2 + 3 + 4 +  1 + 2 + 3 + 4 +  1 + 2 + 3 + 4 +
|---------------||---------------||---------------||---------------|
|---------------||---------------||---------------||---------------|
|---------------||---------------||---------------||--------1------| x4
|3--------------||---------------||---------------||-----------3--2|
|1--------------||5-------3------||2--------------||---------------|
|---------------||3-------1------||0--------------||---------------|




Main Riff (2:06)
================

Riff 1 x 2

Riff 2 x 1




Verse II (2:29)
===============

Riff 3 x 4




Chorus I (3:10)
===============

Riff 1 x 4




Bridge I (3:43)
===============

Riff 5a

 1 e + a 2 e + a 3 e + a 4 e + a  1 e + a 2 e + a 3 e + a 4 e + a 5 e + a
|-------------------------------||---------------------------------------|
|-------------------------------||---------------------------------------|    One guitar only plays the
|-------------------------------||--------------------------------8------| x3 root note on the last chord
|----------------9--------------||----------------7---9---10-----(6)-----|
|2---------------7--------------||2---------------5---7---8--------------|
|0------------------------------||0--------------------------------------|




Riff 5b

 1 e + a 2 e + a 3 e + a 4 e + a  1 e + a 2 e + a 3 e + a 4 e + a
|-------------------------------||-------------------------------|
|-------------------------------||-------------------------------|
|-------------------------------||-------------------------------| x1
|----------------9--------------||----10--9---7---6--------------|
|2---------------7--------------||----8---7---5---4--------------|
|0------------------------------||-------------------------------|




Riff 5a x 3

Riff 5b x 1




Solo (4:30)
===========

Riff 6a (Rhythm)

 1 e + a 2 e + a 3 e + a 4 e + a  1 e + a 2 e + a 3 e + a 4 e + a
|-------------------------------||-------------------------------|
|-------------------------------||-------------------------------|
|-------------------------------||-------------------------------| x3
|7------------------------------||8---------------5--------------|
|5------------------------------||6---------------3--------------|
|-------------------------------||-------------------------------|




Riff 6b (Rhythm)

 1 e + a 2 e + a 3 e + a 4 e + a  1 e + a 2 e + a 3 e + a 4 e + a
|-------------------------------||-------------------------------|
|-------------------------------||-------------------------------|
|-------------------------------||-------------------------------| x1
|7------------------------------||8---------------10-------------|
|5------------------------------||6---------------8--------------|
|-------------------------------||-------------------------------|




Riff 6a x 3

Riff 6b x 1




Chorus II (5:14)
================

Riff 1 x 4




Bridge II/Verse III (5:47)
==========================

Riff 7 (Guitar 1 & 2)

 1 + 2 + 3 + 4 +  1 + 2 + 3 + 4 +  1 + 2 + 3 + 4 +  1 + 2 + 3 + 4 +
|---------------||---------------||---------------||---------------|
|---------------||---------------||---------------||---------------|
|---------------||---------------||---------------||---------------| x8
|---------------||---------------||---------------||--------7------|
|---------------||--------------3||---------------||--------5------|
|0---0---0---0--||0---0---0---0-1||0---0---0---0--||0---0----------|
 .   .   .   .    .   .   .   .    .   .   .   .    .   .




Riff 8a (Guitar 1)

 1 e + a 2 e + a 3 e + a 4 e + a  1 e + a 2 e + a 3 e + a 4 e + a
|-------------------------------||-------------------------------|
|-------------------------------||-------------------------------|
|-------------------------------||-------------------------------| x1
|-------------------------------||-------------------------------|
|-------------------------------||----------------------------3--|
|0-------0-------0-------0------||0-------0-------0-------0---1--|
 .       .       .       .        .       .       .       .

Riff 8a (Guitar 2)

 1 e + a 2 e + a 3 e + a 4 e + a  1 e + a 2 e + a 3 e + a 4 e + a
|-------------------------------||-------------------------------|
|-------------------------------||-------------------------------|
|5-p-4---4-----------4----------|(4)-----------------------------| x1
|------------7---6h7------------||----7---6----------------------|
|-------------------------------||------------8---7---5---7---8--|
|-------------------------------||-------------------------------|




Riff 8b (Guitar 1)

 1 e + a 2 e + a 3 e + a 4 e + a  1 e + a 2 e + a 3 e + a 4 e + a
|-------------------------------||-------------------------------|
|-------------------------------||-------------------------------|
|-------------------------------||-------------------------------| x1
|-------------------------------||----------------7--------------|
|-------------------------------||----------------5--------------|
|0-------0-------0-------0------||0-------0----------------------|
 .       .       .       .        .       .

Riff 8b (Guitar 2)

 1 e + a 2 e + a 3 e + a 4 e + a  1 e + a 2 e + a 3 e + a 4 e + a
|-------------------------------||-------------------------------|
|-------------------------------||-------------------------------|
|5-p-4---4-----------4----------|(4)-----------------------------| x1
|------------7---6h7------------||----7---6----------------------|
|-------------------------------||------------8---5--------------|
|-------------------------------||-------------------------------|




Riff 8a x 1

Riff 8b x 1

Riff 8a x 1

Riff 8b x 1

Riff 8a x 1

Riff 8b x 1

Riff 8a x 1

Riff 8b x 1

Riff 8a x 1

Riff 8b x 1

Riff 8a x 1

Riff 8b x 1

Riff 8a x 1

Riff 8b x 1

Riff 8a x 1 [Guitar 1 begins to slowly fade out of the song starting here]

Riff 8b x 1

Riff 8a x 1

Riff 8b x 1 [Guitar 1 has completely faded away by the end of this riff]

Riff 8a x 1

Riff 8b x 1




Ending Riff (Guitar 2)

 1 e + a 2 e + a 3 e + a 4 e + a  1 e + a 2 e + a 3 e + a 4 e + a
|-------------------------------||-------------------------------||-------------------------------|
|-------------------------------||-------------------------------||-------------------------------|
|5-p-4---4-----------4----------||-------------------------------||-------------------------------| x1
|------------7---6h7-----6---7--||----6-----------------------6--||-------------------------------|
|-------------------------------||8-------7---8---5---7---8------||7------------------------------|
|-------------------------------||-------------------------------||-------------------------------|

         [The tempo begins to gradually slow down during the middle of the second measure]




And that's it!



************************************

| /   slide up
| \   slide down
| h   hammer-on
| p   pull-off
| v   vibrato
|[ ]  harmonic
| •   mute note
| b   bend
| pb  pre-bend
| br  bend release
| pbr pre-bend release
| brb bend release bend

************************************
Добавлено: 23.09.2015
Другие материалы по этой песне:
  • Аккорды и текст

Страница создана 23.09.2015
http://primanota.ru/solitude-aeturnus/scent-of-death-chords.htm
Привет, Гость.
Предлагаем пройти революционный курс по гитаре.
Подарок от PrimaNota.Ru, забирай!