PrimaNota.ru - самый крупный в мире бесплатный архив песенных текстов, аккордов, табулатур и нот


Solitude Aeturnus - Idis - текст песни, таба, видео

Регистрация Запомнить меня
Войти через:  Facebook Google Twitter Vk Yandex Mail.ru

Solitude Aeturnus - Idis - текст песни, таба, видео

Печатать
Просмотров: 228
Уроки эстрадного вокала в Санкт-Петербурге
Song: Idis
Band: Solitude Aeturnus
Album: Adagio
Tabbed by: TrollFaceJesus
E-mail: trollfacejesus@gmail.com


Hey everyone, this is my tab for this song, and I think it sounds petty awesome. All of the rhythm sections 
in the song are here, but I didn't tab out the solo. Hopefully everything in here is accurate, and you guys 
find this tab to be helpful! If you have any comments, questions or revisions to point out, please feel free
to leave a message here, or to send me an email! :D



Tuning: C-Standard



Intro Riff (0:00)
=================

Riff 1a

 1 e + a 2 e + a 3 e + a 4 e + a 1 e + a 2 e + a 3 e + a 4 e + a
|-------------------------------|-------------------------------|
|-------------------------------|-------------------------------|
|-------------------------------|-------------------------------| x1
|-------------------------------|-------------------------------|
|2---5---7---8-------7---5------|2---5---2---3------------------|
|0---3---5---6-------5---3------|0---3---0---1-------1---1---1-1|
                                                     .   .   . .



Riff 1b

 1 e + a 2 e + a 3 e + a 4 e + a 1 e + a 2 e + a 3 e + a 4 e + a
|-------------------------------|-------------------------------|
|-------------------------------|-------------------------------|
|-------------------------------|-------------------------------| x1
|-------------------------------|-------------------------------|
|2---5---7---8-------7---5------|------------------------14\----|
|0---3---5---6-------5---3------|0---0---0---0---0---0---12\----|
                                 .   .   .   .   .   .



Riff 1a x 1




Riff 1c

 1 e + a 2 e + a 3 e + a 4 e + a 1 e + a 2 e + a 3 e + a 4 e + a
|-------------------------------|-------------------------------|
|-------------------------------|-------------------------------|
|-------------------------------|-------------------------------| x1
|-------------------------------|------------------------6/7\6--|
|2---5---7---8-------7---5------|------------------------4/5\4--|
|0---3---5---6-------5---3------|0---0---0---0---0---0----------|
                                 .   .   .   .   .   .



Verse I (0:27)
==============

Riff 2a

 1 e + a 2 e + a 3 e + a 4 e + a 1 e + a 2 e + a 3 e + a 4 e + a
|-------------------------------|-------------------------------|
|-------------------------------|-------------------------------|
|-------------------------------|-------------------------------| x1
|-------------------------------|-------------------------------|
|2------------------------------|------------------------0------|
|0------------------------------|--------------------1----------|




Riff 2b

 1 e + a 2 e + a 3 e + a 4 e + a 1 e + a 2 e + a 3 e + a 4 e + a
|-------------------------------|-------------------------------|
|-------------------------------|-------------------------------|
|-------------------------------|-------------------------------| x3
|-------------------------------|-------------------------------|
|-------------------------------|------------------------0------|
|0------------------------------|--------------------1----------|




Pre-Chorus I (0:53)
===================

Riff 3

 1 e + a 2 e + a 3 e + a 4 e + a 1 e + a 2 e + a 3 e + a 4 e + a
|-------------------------------|-------------------------------|
|-------------------------------|-------------------------------|
|-------------------------------|-------------------------------| x2
|-------------------------------|--------------------7\6-7---6--|
|2-------3/5-2-------8---8\7----|2-------3/5-2-------5\4-5---4--|
|0-----0-1/3-0-----0-6---6\5----|0-----0-1/3-0-----0------------|




Verse II (1:06)
===============

Riff 2a x 1

Riff 2b x 3




Pre-Chorus II (1:32)
====================

Riff 3 x 4




Chorus I (1:59)
===============

Riff 4a

 1 e + a 2 e + a 3 e + a 4 e + a
|-------------------------------|
|-------------------------------|
|-------------------------------| x3
|-------------------------------|
|----------------8-------5-----3|
|0-0-0-------0-0-6-------3---0-1|
 . . .       . .




Riff 4b

 1 e + a 2 e + a 3 e + a 4 e + a
|-------------------------------|
|-------------------------------|
|-------------------------------| x1
|-------------------------------|
|------------------5------------|
|0-0-0-------0-0-0---4-5v-------|
 . . .       . . .




Riff 4a x 1

Riff 4b x 1




Riff 5

|---|
|---|
|---| x1
|---|
|-2-|
|-0-|




Bridge (2:28)
=============

Riff 6

 1 e + a 2 e + a 3 e + a 4 e + a 1 e + a 2 e + a 3 e + a 4 e + a
|-------------------------------|-------------------------------|
|-------------------------------|-------------------------------|
|-------------------------------|-------------------------------| x6
|-------------------------------|-------------------------------|
|7p5----------------------------|7p5----------------------------|
|----6-------0h3h5h6-0h3h5---0--|----6-------0h3h5h6-0h3h5------|




Riff 7

 1 e + a 2 e + a 3 e + a 4 e + a 1 e + a 2 e + a 3 e + a 4 e + a
|-------------------------------|-------------------------------|
|-------------------------------|-------------------------------|
|-------------------------------|-------------------------------| x1
|-------------------------------|-------------------------------|
|2-----------2---2-----------2--|2-----------2---5-------7------|
|0-----------0---0-----------0--|0-----------0---3-------5------|




Riff 6 x 4

Riff 7 x 1




Solo (3:27)
===========

Riff 6 x 3




Riff 8

 1 e + a 2 e + a 3 e + a 4 e + a 1 e + a 2 e + a 3 e + a 4 e + a
|-------------------------------|-------------------------------|
|-------------------------------|-------------------------------|
|-------------------------------|-------------------------------| x1
|-------------------------------|-------------------------------|
|7p5----------------------------|7p5----------------------------|
|----6-------0h3h5h6-0h3h5---0--|----6-------0h3h5h6-0h3-6---5--|




Riff 9

 1 e + a 2 e + a 3 e + a 1 e + a 2 e + a 3 e + a
|-----------------------|-----------------------|
|-----------------------|-----------------------|
|-----------------------|-----------------------| x1
|-----------------------|-----------------------|
|-----------------------|-----------------------|
|3-----------5---3---1--|--------1---3---1------|




Intro Riff (3:49)
=================

Riff 1a x 1




Riff 1d

 1 e + a 2 e + a 3 e + a 4 e + a 1 e + a 2 e + a 3 e + a 4 e + a
|-------------------------------|-------------------------------|
|-------------------------------|-------------------------------|
|-------------------------------|-------------------------------| x1
|-------------------------------|----2v----------2v------2---2-2|
|2---5---7---8-------7---5------|-------------------------------|
|0---3---5---6-------5---3------|0-----------0-0----------------|




Riff 1a x 1

Riff 1d x 1




Verse III (4:17)
================

Riff 10

 1 e + a 2 e + a 3 e + a 4 e + a 1 e + a 2 e + a 3 e + a 4 e + a
|-------------------------------|-------------------------------|
|-------------------------------|-------------------------------|
|-------------------------------|-------------------------------| x4
|----2-----------2--------------|----2--------------------------|
|------2-----------2-----5------|------2-------------8---8\5----|
|0-------0---0-------0-0-3------|0-------0---0---0---6---6\3----|




Pre-Chorus III (4:44)
=====================

Riff 3 x 4




Chorus II (5:11)
================

Riff 4a x 3

Riff 4b x 1

Riff 4a x 3

Riff 4b x 1




Ending Riff

 1 e + a 2 e + a 3 e + a 4 e + a
|-------------------------------|
|-------------------------------|
|-------------------------------| x1
|-------------------------------|
|-------------------------------|
|0-0-0--------------------------|
 . . .



And that's it!



************************************

| /   slide up
| \   slide down
| h   hammer-on
| p   pull-off
| v   vibrato
| +   harmonic
| •   mute note
| b   bend
| pb  pre-bend
| br  bend release
| pbr pre-bend release
| brb bend release bend

************************************
Добавлено: 23.09.2015
Другие материалы по этой песне:
  • Аккорды и текст

Страница создана 13.10.2014
http://primanota.ru/solitude-aeturnus/idis-chords.htm
Привет, Гость.
Предлагаем пройти революционный курс по гитаре.
Подарок от PrimaNota.Ru, забирай!