PrimaNota.ru - самый крупный в мире бесплатный архив песенных текстов, аккордов, табулатур и нот


Solitude Aeturnus - Haunting The Obscure - текст песни, таба, видео

Регистрация Запомнить меня
Войти через:  Facebook Google Twitter Vk Yandex Mail.ru

Solitude Aeturnus - Haunting The Obscure - текст песни, таба, видео

Печатать
Просмотров: 207
Уроки эстрадного вокала в Санкт-Петербурге
-----------------------------------------------------------------------------------
Song: Haunting the Obscure
Band: Solitude Aeturnus
Album: Through the Darkest Hour
Tabbed by: TrollFaceJesus
E-mail: trollfacejesus@gmail.com


Hey everyone, this is my tab for this song, and I think it sounds pretty awesome.
All of the rhythm section in the song are here, but I didn't tab out the solo.
Hopefully everything in here is accurate, and you guys find this tab to be helpful!
If you have any comments, questions, or corrections to point out, please feel free
to leave a message here, or to send me an email! :D



Tuning: D-Standard



Intro I (0:00)
==============

Riff 1a (Guitar 1)

 1 e + a 2 e + a 3 e + a 4 e + a 1 e + a 2 e + a 3 e + a 4 e + a
|-------------------------------|-------------------------------|
|-------------------------------|-------------------------------|
|-------------------------------|-------------------------------| x1
|-------------------------------|-------------------------------|
|-------------------------------|-------------------------------|
|3---5-----------5--------------|3---5-------5---3---5---6------|




Riff 1b (Guitar 1)

 1 e + a 2 e + a 3 e + a 4 e + a 1 e + a 2 e + a 3 e + a 4 e + a
|-------------------------------|-------------------------------|
|-------------------------------|-------------------------------|
|-------------------------------|-------------------------------| x1
|-------------------------------|-------------------------------|
|-------------------------------|-------------------------------|
|3---5-----------5-----------5--|3---5-------5---3---5---6------|




Riff 1a x 1

Riff 1b x 1




Intro II (0:20)
===============

Riff 2 (Guitar 1)

 1 e + a 2 e + a 3 e + a 4 e + a 1 e + a 2 e + a 3 e + a 4 e + a
|-------------------------------|-------------------------------|
|-------------------------------|-------------------------------|
|-------------------------------|-------------------------------| x4
|0-h-2---2---2---2--------------|0-h-2---3-------5-------3h5p3--|
|-------------------------------|-------------------------------|
|-------------------------------|-------------------------------|


Riff 2 (Guitar 2)

 1 e + a 2 e + a 3 e + a 4 e + a 1 e + a 2 e + a 3 e + a 4 e + a
|-------------------------------|-------------------------------|
|-------------------------------|-------------------------------|
|2-h-4---4---4---4--------------|2-h-4---5-------7-------5h7p5--| x4
|-------------------------------|-------------------------------|
|-------------------------------|-------------------------------|
|-------------------------------|-------------------------------|




Verse I (0:39)
==============

Riff 1a x 1

Riff 1b x 1

Riff 1a x 1

Riff 1b x 1

Riff 2 x 4




Bridge I (1:17)
===============

Riff 3a (Guitar 1 & 2)

 1 e + a 2 e + a 3 e + a 4 e + a 1 e + a 2 e + a 3 e + a 4 e + a
|-------------------------------|-------------------------------|
|-------------------------------|-------------------------------|
|-------------------------------|-------------------------------| x1
|-------------------------------|-------------------------------|
|-------------------------------|-------------------------------|
|3---5-------5---3---5-------0--|3---5-------0---6-------6v-----|




Riff 3b (Guitar 1 & 2)

 1 e + a 2 e + a 3 e + a 4 e + a 1 e + a 2 e + a 3 e + a 4 e + a
|-------------------------------|-------------------------------|
|-------------------------------|-------------------------------|
|-------------------------------|-------------------------------| x1
|-------------------------------|-------------------------------|
|-------------------------------|-------------------------------|
|3---5-------5p0h3---5-------0--|3---5-------0---6-------6v-----|




Verse II (1:27)
===============

Riff 1a x 1

Riff 1b x 1

Riff 1a x 1

Riff 1b x 1

Riff 2 x 4




Chorus 1 (2:05)
===============

Riff 4a (Guitar 1 & 2)

 1 e + a 2 e + a 3 e + a 4 e + a 1 e + a 2 e + a 3 e + a 4 e + a 5 e + a 6 e + a
|-------------------------------|-----------------------------------------------|
|-------------------------------|-----------------------------------------------|
|-------------------------------|-----------------------------------------------| x1
|-------------------------------|----------------8---------------7--------------|
|5-/-7---7---5---7\-------------|----------------6---------------5--------------|
|3-/-5---5---3---5\-------------|-----------------------------------------------|




Riff 4b (Guitar 1 & 2)

 1 e + a 2 e + a 3 e + a 4 e + a 1 e + a 2 e + a 3 e + a 4 e + a
|-------------------------------|-------------------------------|
|-------------------------------|-------------------------------|
|-------------------------------|-------------------------------| x1
|-------------------------------|-------------------------------|
|5-/-7---7---5---7\-------------|-------------------------------|
|3-/-5---5---3---5\-------------|-------------------------------|




Riff 4a x 1




Riff 4c (Guitar 1 & 2)

 1 e + a 2 e + a 3 e + a 4 e + a 1 e + a 2 e + a 3 e + a 4 e + a
|-------------------------------|-------------------------------|
|-------------------------------|-------------------------------|
|-------------------------------|-------------------------------| x1
|-------------------------------|------------------------12\----|
|5-/-7---7---5---7\-------------|------------------------10\----|
|3-/-5---5---3---5\-------------|-------------------------------|




Bridge II (2:27)
================

Riff 5a (Guitar 1 & 2)

 1 + 2 + 3 + 4 + 1 + 2 + 3 + 4 + 1 + 2 + 3 + 4 + 1 + 2 + 3 + 4 +
|---------------|---------------|---------------|---------------|
|---------------|---------------|---------------|---------------|
|---------------|---------------|---------------|---------------| x1
|---------------|---------------|---------------|---------------|
|5-7---7-8-7---7|8-7---7-8-7-8--|5-7---7-8-7---7|8-7---7-8-7-5--|
|3-5---5-6-5---5|6-5---5-6-5-6--|3-5---5-6-5---5|6-5---5-6-5-3--|
                         . .                             . .



Riff 5b (Guitar 1)

 1 + 2 + 3 + 4 + 1 + 2 + 3 + 4 + 1 + 2 + 3 + 4 + 1 + 2 + 3 + 4 +
|---------------|---------------|---------------|---------------|
|---------------|---------------|---------------|---------------|
|---------------|---------------|---------------|---------------| x1
|---------------|---------------|---------------|---------------|
|5-7---7-8-7---7|8-7---7-8-7-8--|5-7---7-8-7---7|8-7---7-8-7-5--|
|3-5---5-6-5---5|6-5---5-6-5-6--|3-5---5-6-5---5|6-5---5-6-5-3--|
                         . .                             . .

Riff 5b (Guitar 2)

 1 + 2 + 3 + 4 + 1 + 2 + 3 + 4 + 1 + 2 + 3 + 4 + 1 + 2 + 3 + 4 +
|---------------|---------------|---------------|---------------|
|---------------|---------------|---------------|---------------|
|0-2---2-3-2---2|3-2---2-3-2-3--|0-2---2-3-2---2|3-2---2-3-2-0--| x1
|---------------|---------------|---------------|---------------|
|---------------|---------------|---------------|---------------|
|---------------|---------------|---------------|---------------|




Riff 5c (Guitar 1)

 1 + 2 + 3 + 4 + 1 + 2 + 3 + 4 + 1 + 2 + 3 + 4 + 1 + 2 + 3 + 4 +
|---------------|---------------|---------------|---------------|
|---------------|---------------|---------------|---------------|
|---------------|---------------|---------------|---------------| x1
|---------------|---------------|---------------|---------------|
|5-7---7-8-7---7|8-7---7-8-7-8--|5-7---7-8-7---7|8-7---7-8-7-5--|
|3-5---5-6-5---5|6-5---5-6-5-6--|3-5---5-6-5---5|6-5---5-6-5-3--|
                         . .                             . .

Riff 5c (Guitar 2)

 1 + 2 + 3 + 4 + 1 + 2 + 3 + 4 + 1 + 2 + 3 + 4 + 1 + 2 + 3 + 4 +
|---------------|---------------|---------------|---------------|
|3-5---5-6-5---5|6-5---5-6-5-6--|3-5---5-6-5---5|6-5---5-6-5-3--|
|---------------|---------------|---------------|---------------| x1
|---------------|---------------|---------------|---------------|
|---------------|---------------|---------------|---------------|
|---------------|---------------|---------------|---------------|




Riff 5d (Guitar 1)

 1 + 2 + 3 + 4 + 1 + 2 + 3 + 4 + 1 + 2 + 3 + 4 + 1 + 2 + 3 + 4 +
|---------------|---------------|---------------|---------------|
|---------------|---------------|---------------|---------------|
|---------------|---------------|---------------|---------------| x1
|---------------|---------------|---------------|---------------|
|5-7---7-8-7---7|8-7---7-8-7-8--|5-7---7-8-7---7|8-7---7-8-7-5--|
|3-5---5-6-5---5|6-5---5-6-5-6--|3-5---5-6-5---5|6-5---5-6-5-3--|
                         . .                             . .

Riff 5d (Guitar 2)

 1 + 2 + 3 + 4 + 1 + 2 + 3 + 4 + 1 + 2 + 3 + 4 + 1 + 2 + 3 + 4 +
|3-5---5-6-5---5|6-5---5-6-5-6--|3-5---5-6-5---5|6-5---5-6-5-3--|
|---------------|---------------|---------------|---------------|
|---------------|---------------|---------------|---------------| x1
|---------------|---------------|---------------|---------------|
|---------------|---------------|---------------|---------------|
|---------------|---------------|---------------|---------------|




Solo (3:04)
===========

Riff 6a (Guitar 1)

 1 e + a 2 e + a 3 e + a 4 e + a 1 e + a 2 e + a 3 e + a 4 e + a
|-------------------------------|-------------------------------|
|-------------------------------|-------------------------------|
|-------------------------------|-------------------------------| x3
|8-\-7------(7)--5-/-7------(7)-|8-\-7------(7)--5-/-7-\-5------|
|6-\-5------(5)--3-/-5------(5)-|6-\-5------(5)--3-/-5-\-3------|
|-------------------------------|-------------------------------|




Riff 6b (Guitar 1)

 1 e + a 2 e + a 3 e + a 4 e + a 1 e + a 2 e + a 3 e + a 4 e + a
|-------------------------------|-------------------------------|
|-------------------------------|-------------------------------|
|-------------------------------|-------------------------------| x1
|8-\-7------(7)--5-/-7------(7)-|8-\-7------(7)-----------------|
|6-\-5------(5)--3-/-5------(5)-|6-\-5------(5)--8---7---5------|
|-------------------------------|----------------6---5---3------|
                                                 .   .   .



Bridge III (3:23)
=================

Riff 7a (Guitar 1 & 2)

 1 e + a 2 e + a 3 e + a 4 e + a 1 e + a 2 e + a 3 e + a 4 e + a
|-------------------------------|-------------------------------|
|-------------------------------|-------------------------------|
|-------------------------------|-------------------------------| x3
|-------------------------------|-------------------------------|
|4---2-----------5---4----------|4---2-----------5---4---5------|
|2---0-----------3---2----------|2---0-----------3---2---3------|
                                                 .   .



Riff 7b (Guitar 1 & 2)

 1 e + a 2 e + a 3 e + a 4 e + a 1 e + a 2 e + a 3 e + a 4 e + a
|-------------------------------|-------------------------------|
|-------------------------------|-------------------------------|
|-------------------------------|-------------------------------| x1
|-------------------------------|-------------------------------|
|4---2-----------5---4----------|4---2-----------5---4---8------|
|2---0-----------3---2----------|2---0-----------3---2---6------|
                                                 .   .



Verse III (3:44)
================

Riff 1a x 1

Riff 1b x 1

Riff 1a x 1

Riff 1b x 1

Riff 2 x 4




Chorus II (4:22)
================

Riff 4a x 1

Riff 4b x 1

Riff 4a x 1

Riff 4c x 1




Bridge IV (4:43)
=================

Riff 7a x 3

Riff 7b x 1




Chorus III (5:04)
=================

Riff 4a x 1

Riff 4b x 1

Riff 4a x 1

Riff 4b x 1




Ending (5:20)

 1 e + a 2 e + a 3 e + a 4 e + a
|-------------------------------|
|-------------------------------|
|-------------------------------| x1
|-------------------------------|
|5-/-7---7---5---7--------------|
|3-/-5---5---3---5--------------|




And that's it!




************************************

| /   slide up
| \   slide down
| h   hammer-on
| p   pull-off
| v   vibrato
| +   harmonic
| •   mute note
| b   bend
| pb  pre-bend
| br  bend release
| pbr pre-bend release
| brb bend release bend

************************************
Добавлено: 23.09.2015
Другие материалы по этой песне:
  • Аккорды и текст

Страница создана 11.11.2014
http://primanota.ru/solitude-aeturnus/haunting-obscure-chords.htm
Привет, Гость.
Предлагаем пройти революционный курс по гитаре.
Подарок от PrimaNota.Ru, забирай!