PrimaNota.ru - самый крупный в мире бесплатный архив песенных текстов, аккордов, табулатур и нот


Solicitors - If You Let Me Hold You - таба, видео

Регистрация Запомнить меня
Войти через:  Facebook Google Twitter Vk Yandex Mail.ru

Solicitors - If You Let Me Hold You - таба, видео

Печатать
Просмотров: 90
-------------------------------------------------------------------------------
                             If You Let Me Hold You - The Solicitors
-------------------------------------------------------------------------------

Tuning: Standard


[Intro Riff]

        C#m     A        E         B 
E|-------------------------------------------------------------|
B|-------------------------------------------------------------|
G|-------------------------------------------------------------|
D|---------------2-----2-4--6--4-2-1---------------------------|
A|-----2-4---2-4-----4-----------------------------------------|
E|---4---------------------------------------------------------|


[Verse]
          C#m  
you're so polite
                    A
everybody's got an appetite
                          E
so if you want to take a bite
                  B
ill keep it to myself
     C#m  
it's black and white it's water tight
                  A
you dont need telescopic sight
                                     E   
to know the the difference between wrong and right
                    G#
you can keep it to yourself


[Chorus]
              C#m  
if you let me hold you
       A         E            B     
i wont hold you responsioble
              C#m  
if you let me touch you
             A          E    B 
i wont feel anything at all
            C#m  
if you just humour me
     A                E         B                  
ill let you have the last laugh
              C#m              B               A               
you can keep whatevers left, i promise ill let go
        B   
if you let me hold you

[Intro Riff]

[Verse]
C#m                            A
memories in a box marked opportunities
            E
missed so inexcusably
             B
to never be revealed
           C#m   
but now im out of sight
C#m  
out of mind
C#m  
out of sight
                    A  
so if you feel that way inclined
                           E
you know our idle lips can be entwined
                     G#
and our lips will be sealed


[Chorus]
              C#m  
if you let me hold you
       A         E            B     
i wont hold you responsioble
              C#m  
if you let me touch you
             A          E    B 
i wont feel anything at all
            C#m  
if you just humour me
     A                E         B                  
ill let you have the last laugh
              C#m              B               A               
you can keep whatevers left, i promise ill let go
        B   
if you let me hold you


[Bridge]
         A                  B   
one last time for old times sake
          G#m  
its not a crime
                  C#m  Cm  B     
theres nothing to say
A                        B   
we've got nothin left to lose


[Chorus]
              C#m  
if you let me hold you
       A         E                 
i wont hold you responsioble
              C#m  
if you let me touch you
             A          E    B 
i wont feel anything at all
            C#m  
if you just humour me
     A                E         B                  
ill let you have the last laugh
              C#m              B               A               
you can keep whatevers left, i promise ill let go
        B   
if you let me hold you

        C#m     A        E         B 
E|-------------------------------------------------------------|
B|-------------------------------------------------------------|
G|-------------------------------------------------------------| x2
D|---------------2-----2-4--6--4-2-1---------------------------|
A|-----2-4---2-4-----4-----------------------------------------|
E|---4---------------------------------------------------------|

        C#m     A        E         B            C#m
E|-------------------------------------------------------------|
B|-----staccato-this-time--------------------------------------|
G|-------------------------------------------------------------|
D|---------------2-----2-4--6--4-2-1---------------------------|
A|-----2-4---2-4-----4-------------------------2-4-------------|
E|---4---------------------------------------4-----------------|


************************************

| /   slide up
| \   slide down
| h   hammer-on
| p   pull-off
| ~   vibrato
| +   harmonic
| x   Mute note
| b   Bend
| pb  Pre-bend
| br  Bend release
| pbr Pre-bend release
| brb Bend release bend

************************************
Добавлено: 27.05.2015
Вам также может быть интересно:
Другие материалы по этой песне:
  • Аккорды и текст

Страница создана 27.05.2015
http://primanota.ru/solicitors/if-you-let-me-hold-you-chords.htm
Привет, Гость.
Предлагаем пройти революционный курс по гитаре.
Подарок от PrimaNota.Ru, забирай!