PrimaNota.ru - самый крупный в мире бесплатный архив песенных текстов, аккордов, табулатур и нот


Soley - Bad Dream - аккорды и текст, видео

Регистрация Запомнить меня
Войти через:  Facebook Google Twitter Vk Yandex Mail.ru

Soley - Bad Dream - аккорды и текст, видео

Печатать
Просмотров: 81
Bad Dream
Soley
Sóley - Bad Dream
-----------------
Chords and tab by: Wehmutshall (wehmutshall@gmail.com)

  Am                        Fsus4  
I saw you out there, you were wearing my shoes
        Am                       Fsus4
And the rabbit was sitting on your head
  Am                          Fsus4
I tried to run fast, but the grass was holding me down
   Am                       Fsus4
So I stood there pretty sad

                C                     Fsus4
The rabbit will jump on me and take my heart out
                      F
Only if it's possible for you to live with it

Dsus2            C                     Fsus4
Take my shoe and run a little faster darling 
    A7             A5
We have so much to see

    Am                          Fsus4
The moon was laughing and said "leave this dark cold place
     Am                           Fsus4
the rabbit is preparing something bad" 
Am                  Fsus4            
I was so afraid so I ran, but lost my other shoe 
  Am                    Fsus4
I fell down to the grass

           C                       Fsus4
The rabbit jumped on me and took my heart
                           F
And put it in its place, so you would love it more

    Dsus2            C                     Fsus4
You took my shoe and ran so fast to me, my darling 
   A7                A5
We kicked the rabbit down


   Am                Fsus4             Am                Fsus4       2x
e|-----0-------0---|-----1-------1---|-----0-------0---|-----1-------||
B|---1---1---1---1-|---1---1---1---1-|---1---1---1---1-|---1---1-----||
G|-2-------2-------|-3-------3-------|-2-------2-------|-3-------3---||
D|-----------------|-----------------|-----------------|-------------||
A|-----------------|-----------------|-----------------|-------------||
E|-----------------|-----------------|-----------------|-------------||
   C                 Fsus4             F                 F
e|-----8-------8---|-----1-------1---|-----1-------1---|-----1-------|
B|---5---5---5---5-|---1---1---1---1-|-------1-------1-|---1---1-----|
G|-5-------5-------|-3-------3-------|---2-------2-----|-------------|
D|-----------------|-----------------|-3-------3-------|-3-------3---|
A|-----------------|-----------------|-----------------|-------------|
E|-----------------|-----------------|-----------------|-------------|
   Dsus2   C         Fsus4   A7        A5
e|-----0-------8---|-----1-----------|-----------------|
B|-------3---5---5-|---1---1-----2---|-----------------|
G|---2-----5-------|-3---------0-----|-2---------------|
D|-0---------------|-----------------|-----------------|
A|-----------------|---------0-------|-0---------------|
E|-----------------|-----------------|-----------------|
Добавлено: 09.06.2016
Другие материалы по этой песне:
  • Аккорды и текст

Страница создана 09.06.2016
http://primanota.ru/soley/bad-dream-chords.htm
Привет, Гость.
Предлагаем пройти революционный курс по гитаре.
Подарок от PrimaNota.Ru, забирай!