PrimaNota.ru - самый крупный в мире бесплатный архив песенных текстов, аккордов, табулатур и нот


Solen - Estelle - аккорды и текст, видео

Регистрация Запомнить меня
Войти через:  Facebook Google Twitter Vk Yandex Mail.ru

Solen - Estelle - аккорды и текст, видео

Печатать
Просмотров: 78
Estelle
Solen
(visar inte hur många gånger man gör detta mönstret men lyssna på låten så fattar ni hinten

e|-------14----------14---------14----------12---------12--------12---|
B|-12-12----12-12-12---12-12-12----12-12-12---12-12-12---12-12-12-----|
G|--------------------------------------------------------------------|
D|--------------------------------------------------------------------|
A|--------------------------------------------------------------------|
E|--------------------------------------------------------------------|

e|-------14----------14---------14----------17---------14--------14---|
B|-12-12----12-12-12---12-12-12----12-12-12---12-12-12---12-12-12-----|
G|--------------------------------------------------------------------|
D|--------------------------------------------------------------------|
A|--------------------------------------------------------------------|
E|--------------------------------------------------------------------|

e|-------14----------14---------14----------12---------12--------12---12-10-12-10-12-10|
B|-12-12----12-12-12---12-12-12----12-12-12---12-12-12---12-12-12----------------------|
G|-------------------------------------------------------------------------------------|
D|-------------------------------------------------------------------------------------|
A|-------------------------------------------------------------------------------------|
E|-------------------------------------------------------------------------------------|


Bm            A
Jag har ögon, och kan se själv.
G                                  Em
Mamma, jag är ledsen och gråter och gnor.
Bm           A
Du har ögon, du kan se själv
G                            Em
Men tårar väger mindre än du tror
Bm          A
Värdefulla, värdelösa
G                              Em
Mitt skinn är av silver och av guld
Bm            A 
Jag har ögon, och kan se själv
G                                   Em
Mamma, jag är ledsen och gråter och gnor.

e|--------7-5-----7/9-5-------------|
B|--7-7-7---------------7-7-7-5-----|
G|------------7-5-------------------|
D|----------------------------------|
A|----------------------------------|
E|----------------------------------|

Bm            A
Jag har ögon, och kan se själv.
G                                  Em
Mamma, jag är ledsen och gråter och gnor.


www.solenmusik.se

Av Moses Shaw
Добавлено: 11.12.2015
Вам также может быть интересно:
Другие материалы по этой песне:
  • Аккорды и текст

Страница создана 11.12.2015
http://primanota.ru/solen/estelle-chords.htm
Привет, Гость.
Предлагаем пройти революционный курс по гитаре.
Подарок от PrimaNota.Ru, забирай!