PrimaNota.ru - самый крупный в мире бесплатный архив песенных текстов, аккордов, табулатур и нот


Solefald - Christiania - таба, видео

Регистрация Запомнить меня
Войти через:  Facebook Google Twitter Vk Yandex Mail.ru

Solefald - Christiania - таба, видео

Печатать
Просмотров: 55
------------------------------------------------------------------------------

SOLEFALD-Christiania-intro  from In Harmonia Universali  Century Media 2003
-------------------------------------------------------------------------------
Tabbed by:NihilView

E-mail:

Tuning:E standard

                   INTRO-THEME 0:00-1:50 

e|---------------------------------------------------------------------------|
B|---------------------------------------------------------------------------|
G|------------10----------9--------------------------------------------------| GUITAR 1.
D|-0--7-8-----------7-8-------8---7-8----------------------------------------|
A|------------------------------------------5--------------------------------|
E|---------------------------------------------------------------------------|



e|----------13---------------------12-----------------------------------------|
B|----------------11-------------------11----10h11----------------------------| GUITAR 2.
G|-----------------------9----------------------------------------------------|
D|--0-------------------------------------------------0-----------------------|
A|----------------------------------------------------------------------------|
E|----------------------------------------------------------------------------|



e|---------------------------------------------------------------------------|
B|-------------------------------------------------------------6-------------| 
G|--10--------------9------------------------------------------7-------------| GUITAR 3.
D|-------8--0-----------8----0--------7h8----------------------7-------------|
A|-----------------------------------------------8-------------5-------------|
E|---------------------------------------------------------------------------|






************************************

| /   slide up
| \   slide down
| h   hammer-on
| p   pull-off
| ~   vibrato
| +   harmonic
| x   Mute note
| b   Bend
| pb  Pre-bend
| br  Bend release
| pbr Pre-bend release
| brb Bend release bend

************************************
Добавлено: 29.10.2015
Другие материалы по этой песне:
  • Аккорды и текст

Страница создана 29.10.2015
http://primanota.ru/solefald/christiania-chords.htm
Привет, Гость.
Предлагаем пройти революционный курс по гитаре.
Подарок от PrimaNota.Ru, забирай!