PrimaNota.ru - самый крупный в мире бесплатный архив песенных текстов, аккордов, табулатур и нот


Soledad Velez - Dont Worry Babe - аккорды и текст, видео

Регистрация Запомнить меня
Войти через:  Facebook Google Twitter Vk Yandex Mail.ru

Soledad Velez - Dont Worry Babe - аккорды и текст, видео

Печатать
Просмотров: 83
Dont Worry Babe
Soledad Velez
"Don't worry babe" by: soledad velez 
official website:http://soledadvelez.bandcamp.com/

genre: inide/folk
song by: soledad velez and jesus de santos
CHILE. 

( capo 3rd ) ......

chords:     A     G    D  


|-------------------------------------------------------------------|
|--0-----0-------2------- 2--------0--------0-------0------ 0-------|
|------2------2-------0-----------------0----------------0-------- -|
|----2------2------0-----------0-----2-----------2-----2---------2--|     (x 6)
|--2-----0-------3-----------3---- 3-----------3----3----------3--- |
|-------------------------3-----------------2---------------2- -----|

You're just a man 
you told me yesterday 
all will be, will be ok 
You're just a man 
you told me yesterday 
all wil be, will be ok 

            A    G   D
Dont worry babe. 

            A   G    D
don't worry babe, 

           A    G    D
don't worry babe. 

A          G           D
And if the mountains decide go to the sea 

A          G           D
and if the sun suddenly want go to sleep 

A          G           D
and if the moon decide, left us now 

A          G           D
with the stars go to another galaxy 

|-------------------------------------------------------------------|
|--0-----0-------2------- 2--------0--------0-------0------ 0-------|
|------2------2-------0-----------------0----------------0-------- -|
|----2------2------0-----------0-----2-----------2-----2---------2--|     (x 6)
|--2-----0-------3-----------3---- 3-----------3----3----------3--- |
|-------------------------3-----------------2---------------2- -----|
don't worry babe, 
don't worry babe, 
don't worry babe. 

You're just a man 
you told me yesterday 
all will be will be ok 
You're just a man, 
you told me yesterday 
all will be, will be ok 

         A     G    D
Don't worry babe, 

         A    G     D
don't worry babe, 

         A    G     D 
don't worry babe. 

(A, G, D all the song)

I will be in the ocean 
looking for your mountains 
I will tell to the sun 
how beautiful is the day 
I'll try to convince the moon 
and the stars.. 
to stay. 
Don't worry babe..



very easy song. Soledad velez, a great artist, i love her voice!
tab by: lorna melissa.
Добавлено: 15.08.2013
Другие материалы по этой песне:
  • Аккорды и текст

Страница создана 15.08.2013
http://primanota.ru/soledad-velez/dont-worry-babe-chords.htm
Привет, Гость.
Предлагаем пройти революционный курс по гитаре.
Подарок от PrimaNota.Ru, забирай!