PrimaNota.ru - самый крупный в мире бесплатный архив песенных текстов, аккордов, табулатур и нот


Solaris Project - Need Fuck - таба, видео

Регистрация Запомнить меня
Войти через:  Facebook Google Twitter Vk Yandex Mail.ru

Solaris Project - Need Fuck - таба, видео

Печатать
Просмотров: 75
-----------------------------------------------------------------
NEED FUCK – Solaris-Project
-----------------------------------------------------------------
Tabbed by: omri Cohen
Email:xtremeo@walla.co.il

Tuning: drop D
INTRO/CHORUS                       U U U U
e|---------------------------------X-X-X-X-------------------------|
B|---------------------------------X-X-X-X-------------------------|
G|---------------------------------X-X-X-X-------------------------|
D|--feedback-9-9-90-3-3-3-0--------X-X-X-X--------until verse------|
A|-----------9-9-90-3-3-3-0--------0-0-0-0-------------------------|
D|-----------9-9-90-3-3-3-0--------0-0-0-0-------------------------|
VERSE            D D U D
e|-----------)-----------------------------------------)----10-10--|
B|--------10b--10-7-7-7-7---------------------------10b-10--10-10--|
G|----------------7-7-7-7--third time do this----------------------|
D|--9-9-9b--------7-7-7-7---------------------9--9-9---------------|
A|-----------------------------------------------------------------|
D|-----------------------------------------------------------------|
At this point he probably changes pickups to the acoustic one and uses
some kind of effect maybe a delay or echo-you decide the amount.
e|---------------------------------------------|-------------10----|
B|--------10-7-----------------couple-of-times-|------10-7---10----|
G|-------------7-9~—------------------and-then-|-------------------|
D|-9--9-9------------------------------do-this-|--9-9--------------|
A|---------------------------------------------|-------------------|
D|---------------------------------------------|-------------------|
Bridge
e|----------------|------------------------------------------------|
B|----------------|------------------------------------------------|
G|----------------|------------------------------------------------|
D|-7/-9-9-9-9-9-0-|---------------------7/8-8-8-8-8-8-8/9-9-9-9-9--|repeat
A|----------------|-8-8-8-8-8-5-5-5-5-5----------------------------|
D|----------------|------------------------------------------------|
SOLO
The solo is not quite a guitar but this is the transcript of it to
the guitar. The background on the solo is the bridge
e|----------------------------------------------------------|------|
B|----------------------------------------------------------|------|end the
G|-----------------7-7-7-7-7-9-9-9-9—9/10-10-10-10-10-10-10-|------|solo with
D|-----9-9-9-9-9--9-----------------------------------------|--7-9-|this note
A|----------------------------------------------------------|------|
E|----------------------------------------------------------|------|

| / slide up
| ) bend
| ~ vibrato
| x Mute note
| U upstroke 
| D downstroke
=========================================================
Добавлено: 18.04.2012
Другие материалы по этой песне:
  • Аккорды и текст

Страница создана 18.04.2012
http://primanota.ru/solaris-project/need-fuck-chords.htm
Привет, Гость.
Предлагаем пройти революционный курс по гитаре.
Подарок от PrimaNota.Ru, забирай!