PrimaNota.ru - самый крупный в мире бесплатный архив песенных текстов, аккордов, табулатур и нот


Solanaceae - Fenella - таба, видео

Регистрация Запомнить меня
Войти через:  Facebook Google Twitter Vk Yandex Mail.ru

Solanaceae - Fenella - таба, видео

Печатать
Просмотров: 39
Уроки эстрадного вокала в Санкт-Петербурге
-----------------------------------------------------------------------------------------
                                 FENELLA - Solanaceae
-----------------------------------------------------------------------------------------
Tab by: Wehmutshall

Intro

e|-12-10--------------------|----------------|-12-10------12---10---10--|-10-12-13---12-|
B|-------10---13---12---10--|-10-12-13---10--|-------10-----------------|---------------|
G|--------------------------|----------------|--------------------------|---------------|
D|--------------------------|----------------|--------------------------|---------------|
A|--------------------------|----------------|--------------------------|---------------|
E|--------------------------|----------------|--------------------------|---------------|

Section 1

e|-8-7-0---5---3p0-1--|-0-1-3--------------|-8-7-0---5---3---7--|-5-7-8---5-------5--|
B|--------------------|---------1-------1--|--------------------|---------------5----|
G|-----0--------------|---------------2----|-----0--------------|-------------5------|
D|---------3-------0--|-----2-------2------|---------3-------5--|-----7--------------|
A|-0------------------|---------0----------|-0------------------|---------0----------|
E|--------------------|--------------------|--------------------|--------------------|

Section 2

e|-0-------0--|---------0--|------------|-------------|
B|-------0---0|-1----------|-1-------1-3|-0-------0-1-|
G|-----2------|-----2------|-----2------|-----0-------|
D|---2--------|---3---0----|---2---2-0--|---0---0-----|
A|-0----------|------------|-0----------|-------------|
E|---------3--|-1----------|------------|-3-----------|

e|-0-------0--|---------3p0|------------|-------------|
B|-----------0|-1----------|-1-------1-3|-0-------0-1-|
G|-----2------|-----2------|-----2------|-----0-------|
D|---2---2----|---3---0----|---2---2-0--|---0---0-----|
A|-0----------|------------|-0----------|-------------|
E|---------3--|-1----------|------------|-3-----------|

Section 3

e|-7---7---7--|-5---5---5--|-8---8---8-7|-3----------|
B|-5-5---5---5|---5---5---5|---5---5----|-----0------|
G|------------|------------|------------|------------|
D|------------|------------|-0----------|---0---0----|
A|-0----------|-0----------|------------|---------3-2|
E|------------|------------|------------|-3----------|

e|-7---7---7--|-5---5---5--|-5---5---5-7|-3----------|
B|-5-5---5---5|---5---5---5|---6---6----|-----0------|
G|------------|------------|------------|-------0----|
D|------------|------------|-0----------|---0--------|
A|-0----------|-0----------|------------|---------3-2|
E|------------|------------|------------|-3----------|
Добавлено: 22.12.2015
Другие материалы по этой песне:
  • Аккорды и текст

Страница создана 22.12.2015
http://primanota.ru/solanaceae/fenella-chords.htm
Привет, Гость.
Предлагаем пройти революционный курс по гитаре.
Подарок от PrimaNota.Ru, забирай!