PrimaNota.ru - самый крупный в мире бесплатный архив песенных текстов, аккордов, табулатур и нот


Sol - Need Your Love - таба, видео

Регистрация Запомнить меня
Войти через:  Facebook Google Twitter Vk Yandex Mail.ru

Sol - Need Your Love - таба, видео

Печатать
Просмотров: 138
Уроки эстрадного вокала в Санкт-Петербурге
-------------------------------------------------------------------------------
                             Need Your Love - Sol (ft. Ray Dalton)
-------------------------------------------------------------------------------
Tabbed by:Paulipiano
E-mail:paul.garrecht@yahoo.de

Tuning:Standard
Capo: 3 

There Are 3 parts of tabbing in this song.


                              Type 1 C-Chord with Capo 3rd freat (Eb)
e|------0---3---0---3---0---3---0--------------------------------------------|
B|----1-------1---1---1---1---1---1------------------------------------------|
G|---------------------------------------------------------------------------|
D|---------------------------------------------------------------------------|
A|--3-----3------------------------------------------------------------------|
E|---------------------------------------------------------------------------|

                              Type 2 Am7-Chord with Capo 3rd freat (Cm7)
e|------0---3---0---3---0---3---0--------------------------------------------|
B|----1-------1---1---1---1---1---1------------------------------------------|
G|---------------------------------------------------------------------------|
D|---------------------------------------------------------------------------|
A|--0-----0------------------------------------------------------------------|
E|---------------------------------------------------------------------------|

                              Type 3 F-Chord with Capo 3rd freat (Eb)
e|------0---3---0---3---0---3---0--------------------------------------------|
B|----1-------1---1---1---1---1---1------------------------------------------|
G|---------------------------------------------------------------------------|
D|---------------------------------------------------------------------------|
A|---------------------------------------------------------------------------|
E|--1-----1------------------------------------------------------------------|

And Thats it!

               Type 1
Don't need no make up, don't need no mirror
Don't need no nothing, no nothing, just need your here
Don't need no make up, don't need no mirror
Don't need no nothing, there's nothing that I know clearer
Don't need no lipstick, don't need no heels

               Type 2
Just need you, I need you to keep it real
I need you, I need you, in my life,
I need you, I need you, I need you
By my side

               Type 1
I'll keep my faith, if you keep loving me right
I'll keep my faith, if you make love to me tonight

               Type 2
And if you right by my side, you'll have the time of your life
Cause if you right by my side, you'll have the time of your life

               Type 1
And I get high when you let me up the side
Just close your eyes and I'll take you for a ride

               Type 2
And I get high when you let me come aside

               Type 3
Just close your eyes and let my love in your life


               REFRAIN

                Type 1
I need your love, love, I need your love in my life
I need your love, I need your love
I need your loving tonight

                Type 2
I need your love, love, I need your love in my life
I need your love, I need your love

                Type 3
I need your loving tonight

                Type 1
I need your love, love, I need your love in my life
I need your love, I need your love
I need your loving tonight

                Type 2
I need your love, love, I need your love in my life

                Type 3
I need your love, I need your love
I need your loving tonight


                 Verse
                Type 1
I believe I need my space,
But believe I need you more
Like I need sleep, like I need dreams
Like I need rock music to tour

                Type 2
Not yet show love a man
But you keep come back like rubber band
I understand cause I can listen
Your eyes speak unless I'm tripping

                Type 1
Slipping, but I'm falling, yeah I'm falling deep down
My skin on you, your skin on me
We rub under the sheets, wow

                Type 2
Bring the jukebox to the rooftop
We can watch the world burn
Under the native sun, you're my favorite one
You can make the world turn

                Type 1
I'm crashing hard, you gots to know
You sing the blues, I'm rock and roll
We can make hip hop if you have the soul

                Type 2
Just open up I'm knocking though
No make up, no product, no clothes

                Type 3
We knocking yo, open up, I'll rock your globe
You need me, but I need you more

               REFRAIN

                Type 1
I need your love, love, I need your love in my life
I need your love, I need your love
I need your loving tonight

                Type 2
I need your love, love, I need your love in my life
I need your love, I need your love

                Type 3
I need your loving tonight

                Type 1
I need your love, love, I need your love in my life
I need your love, I need your love
I need your loving tonight

                Type 2
I need your love, love, I need your love in my life

                Type 3
I need your love, I need your love
I need your loving tonight

Добавлено: 03.12.2015
Вам также может быть интересно:
Другие материалы по этой песне:
  • Аккорды и текст

Страница создана 03.12.2015
http://primanota.ru/sol/need-your-love-chords.htm
Привет, Гость.
Предлагаем пройти революционный курс по гитаре.
Подарок от PrimaNota.Ru, забирай!