PrimaNota.ru - самый крупный в мире бесплатный архив песенных текстов, аккордов, табулатур и нот


sol seed - Trouble - таба, видео

Регистрация Запомнить меня
Войти через:  Facebook Google Twitter Vk Yandex Mail.ru

sol seed - Trouble - таба, видео

Печатать
Просмотров: 64
-------------------------------------------------------------------------------
                             Trouble - Sol Seed
-------------------------------------------------------------------------------
Tabbed by: wattmalter

Props to my guitar teacher Rex for providing me the key and scales to figure out the song.
Work in progress, will update when I have more time!

Tuning: Standard

Chords:
    Em    Bm
e|--7--7--7--7--|
B|--8--8--7--7--|
G|--9--9--7--7--|
D|--9--9--9--9--|
A|--7--7--9--9--|
E|--------7--7--|

e|--14-12----------------------------------------------|
B|-----------12~----10---------------------------------|
G|--------14-----------12-12\9----3b-2p0---------------|
D|---------------------------------------2p0-----------|
A|-------------------------------------------2p0-------|
E|-----------------------------------------------3p0~--|

You can figure out the triplets and palm mutes
e|--------------------------------------------------------------|
B|---8-7h8p7------------8-7\------8-7h8p7---------------7-------|
G|-9---------7---7----9---------9---------7---7---7---9---9--7--|
D|-------------9----------------------------9---9---9-----------|
A|--------------------------------------------------------------|
E|--------------------------------------------------------------|



************************************

| /   slide up
| \   slide down
| h   hammer-on
| p   pull-off
| ~   vibrato
| +   harmonic
| x   Mute note
| b   Bend
| pb  Pre-bend
| br  Bend release
| pbr Pre-bend release
| brb Bend release bend

************************************
Добавлено: 15.06.2016
Другие материалы по этой песне:
  • Аккорды и текст

Страница создана 15.06.2016
http://primanota.ru/sol-seed/trouble-chords.htm
Привет, Гость.
Предлагаем пройти революционный курс по гитаре.
Подарок от PrimaNota.Ru, забирай!