PrimaNota.ru - самый крупный в мире бесплатный архив песенных текстов, аккордов, табулатур и нот


Sol Invictus - Believe Me - таба, видео

Регистрация Запомнить меня
Войти через:  Facebook Google Twitter Vk Yandex Mail.ru

Sol Invictus - Believe Me - таба, видео

Печатать
Просмотров: 270
Уроки эстрадного вокала в Санкт-Петербурге
-------------------------------------------------------------------------------
                             BELIEVE ME - Sol Invictus
-------------------------------------------------------------------------------
Tabbed by: RadioInOpposition

Tuning: Standard

  Verse
e|---------------------------------|---------------------------------|
B|-----0-----0-----0-----0-----0---|-----0-----0-----0-----0-----0---|
G|---0-----0-----0-----0-----0---0-|---0-----0-----0-----0-----0---0-|
D|---------------------------------|---------------------------------|
A|---------------------------------|---------------------------------|
E|-2-----2-----2-----2-----2-------|-0-----0-----0-----0-----0-------|

  Chorus
e|-----------------|-----------------|-----------------|-----------------|
B|-----0-----0-----|-----0-----0-----|-----0-----0-----|-----0-----0-----|
G|---0-----0-----0-|---0-----0-----0-|---0-----0-----0-|---0-----0-----0-|
D|-----------------|-----------------|-----------------|-----------------|
A|-----------------|-----------------|-----------------|-----------------|
E|-7-----7-----7---|-5-----5-----5---|-3-----3-----3---|-5-----5-----5---|

Verse riff x4
Verse 1 x4
Chorus x4
Verse riff x2
Verse 2 x4
Chorus x4
Verse riff x2
Verse 3 x4
Chorus x6

End on

e|-
B|-
G|-
D|-
A|-
E|7

Lyrics:

Verse 1
Field of spears: Our creation
And for our crimes there be damnation
The blood of the past, it does bathe us
The fingers point to blame and claim us

Chorus
And without love, we are lost
Believe me, we are lost
Without love, we are dust
Believe me, we are dust
Without love, we lose our souls
And mine had left long ago
The gods above and the gods below
Believe me, believe me

Verse 2
A child is skating on the ice
Like a child playing with a knife
The gods above and the gods below
Playing chess for her soul

[Chorus]

Verse 3
With tears of sorrow, and tears of rage
They lower her into the grave
The gods above and the gods below
Playing catch with her soul

[Chorus]
Добавлено: 21.08.2014
Другие материалы по этой песне:
  • Аккорды и текст

Страница создана 21.08.2014
http://primanota.ru/sol-invictus/believe-me-chords.htm
Привет, Гость.
Предлагаем пройти революционный курс по гитаре.
Подарок от PrimaNota.Ru, забирай!