PrimaNota.ru - самый крупный в мире бесплатный архив песенных текстов, аккордов, табулатур и нот


С.О.К. (Съешь Оба Куска) - С.О.К - Love - аккорды и текст, видео

Регистрация Запомнить меня
Войти через:  Facebook Google Twitter Vk Yandex Mail.ru

С.О.К. (Съешь Оба Куска) - С.О.К - Love - аккорды и текст, видео

Печатать
Просмотров: 185
С.О.К - Love
С.О.К. (Съешь Оба Куска)
Вступление: 
G/D(III) Bm(II) Am7/E С/G 
E||----|-----------|----------------------|-------------------- 
B||--5-|--3------5-|--2-----------3-------|-------1------------ 
G||--5-|--4------5-|--4-----4--5--4--5-0--|-------0--------0--- 
D||----|--5--------|--4-------------------|-------2-------2---- 
A||----|--5--------|--2-------------------|-0h3-0--------3----- 
E||----|-----------|----------------------|-------------3------

Бой как в песне «Солдат» 5'nizza

R1: перебор С/G: 
G(III) Bm (II) C (1 удар) Бас Щипок Am7 
E||----3---------2---------0-----------------0------0-- |--------- 
B||----3---------3---------1-----------------1------1-- |--------- 
G||----4---------4---------0-----------------0------0-- |------0-- 
D||----5---------4---------2-----------------2--------- |-----2--- 
A||----5------2---------3--------------2------------0-- |----3---- 
E||-3-------------------------------------------------- |--3------

Куплет: 
G Bm C Am7 
Я не вижу других, мир заполнен тобой. 
R1 + перебор С/G: 
Ты заполнила все, этот мир только твой 
R1: 
Я дышу тобою, нежно тебя целую. 
R1: 
Крепко тебя обнимаю, я не ищу другую.

Припев (Em, C - перебор, G, Bm - бой): 
Em C G (III) Bm (II) 
Я берегу данное, целую твои ладони, 
Em C G (III) Bm (II) 
Целую твои ресницы, возвращаясь в пустом вагоне.

Куплет: 
G Bm C Am7 
УЕ.УЕ.Е.Е.Е.Е.Е.Е.Е.Е 
G Bm C Am7 + перебор С/G: 
УЕ.УЕ.Е.Е.Е.Е.Е.Е.Е.Е

Фотография: белые волны, 
Двое у моря сидят на бетоне. перебор С/G: 
Кончики пальцев тепло твое помнят, 
Памяти листья листают перроны. 
А я...

Припев: 
Em C G (III) Bm (II) 
Я берегу данное, целую твои ладони, 
Em C G (III) Bm (II) 
Целую твои ресницы, возвращаясь в пустом вагоне. 
Em C G (III) Bm (II) 
Я берегу данное, целую твои ладони, 
Бой: Em C G (III) Bm (II) 
Целую твои ресницы, возвращаясь в пустом вагоне.

Куплет: 
G Bm C Am7 
УЕ.УЕ.Е.Е.Е.Е.Е.Е.Е.Е 
G Bm C Am7 + перебор С/G: 
УЕ.УЕ.Е.Е.Е.Е.Е.Е.Е.Е

G (играем один аккорд)

Дальше идёт "Вступление" без первого аккорда (который из 2х нот)

G Bm C Am7 
Я не вижу других, мир заполнен тобой....
Добавлено: 18.06.2016
Другие материалы по этой песне:
  • Аккорды и текст

Страница создана 18.06.2016
http://primanota.ru/sok-sesh-oba-kuska/sok-love-chords.htm
Привет, Гость.
Предлагаем пройти революционный курс по гитаре.
Подарок от PrimaNota.Ru, забирай!