PrimaNota.ru - самый крупный в мире бесплатный архив песенных текстов, аккордов, табулатур и нот


Soja - Thunderstorms - таба, видео

Регистрация Запомнить меня
Войти через:  Facebook Google Twitter Vk Yandex Mail.ru

Soja - Thunderstorms - таба, видео

Печатать
Просмотров: 148
Уроки эстрадного вокала в Санкт-Петербурге
-------------------------------------------------------------------------------
                             Thunderstorms by Soja
-------------------------------------------------------------------------------
Tabbed by: BigEz

I did my best with the solos, open to suggestions. I like playing this with a
little bit of phaser effect. Enjoy!

Tuning: Standard

e|------------5--5-3-0----------5--5-3-0----------5-----------------5---------|
B|---5-5\3-0--5--5-3-0--5-5\3-0-5--5-3-0--5-5\3-0-5--8-8-5--5-5\3-0-5---------|
G|---4-4\2-0------------4-4\2-0-----------4-4\2-0----7-7-4--4-4\2-0-----------|
D|----------------------------------------------------------------------------|
A|----------------------------------------------------------------------------|
E|----------------------------------------------------------------------------|

e|---0-3-5-7~~-5~~-3p0---0-3-5-7-5-3-5-5-5----0-3-5-7-5\3-3h5-3---------------|
B|----------------------------------------------------------------------------|
G|----------------------------------------------------------------------------|
D|----------------------------------------------------------------------------|
A|----------------------------------------------------------------------------|
E|----------------------------------------------------------------------------|

e|---0-6/5-3-5-3-5-5-3-0-0~~~-|--7~~-5-5-3p0----7-5-3-5-3-0-0-----------------|
B|----------------------------|-----------------------------------------------|
G|----------------------------|-----------------------------------------------|
D|----------------------------|-----------------------------------------------|
A|----------------------------|-----------------------------------------------|
E|----------------------------|-----------------------------------------------|

e|---7/10-12--5-5-3p0--0-2-3-5-5-5~-3-2-0~~~~~~-------------------------------|
B|----------------------------------------------------------------------------|
G|----------------------------------------------------------------------------|
D|----------------------------------------------------------------------------|
A|----------------------------------------------------------------------------|
E|----------------------------------------------------------------------------|

Verse: Em, C, Am
 Em        C           Am       
I don't, know one, thing about, you not,
   Em       C       Am
Knowing, a thing about me
  Em                    C              Am
Cause' we dropped down into all your thunderstorms
  Em          C           Am
and claim its not your lightning.

And now the fire's gone in my eyes
grows cold for a while
and I don't feel your hate
The words have been said over and around it
but I don't hear no talkin' (your talkin')


Chorus: Dm, Dm, Am, C
 Dm                      Dm
So I'll be stoppin' and I'll be startin'
 Am                C
I'll be wondering why we don't know what we do
 Dm                  Dm
and Ima be the same even if I'm walkin' by myself
 Am                C
I'm just wonderin' why. Yeah




e|---5-2b~~------------7-10\7-5-3-5/3---2-3-0----2-0-----0-3\5-3-0------------|
B|-----------5-3-----------------------------3-0------------------------------|
G|---------------2~~~---------------------------------------------------------|
D|----------------------------------------------------------------------------|
A|----------------------------------------------------------------------------|
E|----------------------------------------------------------------------------|



Verse: Em, C, Am
I never ever saw us clearly,
and clearly we're both to blame
But silence and progress--my thing
Your thing was callin' my name.


e|----------7---5---3---2--0---------------------------------------------------|
B|-----------------------------------------------------------------------------|
G|-----------------------------------------------------------------------------|
D|-----------------------------------------------------------------------------|
A|-----------------------------------------------------------------------------|
E|-----------------------------------------------------------------------------|

Now you can see your whole life without me
quietly in mine felt you
The distances of continents..
Phone calls upsetting now..
Something's that I guess I, I can't do

Chorus: Dm, Dm, Am, C


e|-----------------------------------------------------------------------------|
B|-----------------------------------------------------------------------------|
G|--10b--7-7h9-7h9----------------7---7-9b10---12-11-9-7--12-11-9-7--7-9br10---|
D|-----------------7~~~-------0/9---9------------------------------------------|
A|-----------------------------------------------------------------------------|
E|-----------------------------------------------------------------------------|

e|-----------------------------------------------------------------------------|
B|-----12-12----12----13----13----13-13\15-15--15\13-12-12-15\13-12-12---------|
G|--12-------12----12----12----12----------------------------------------------|
D|-----------------------------------------------------------------------------|
A|-----------------------------------------------------------------------------|
E|-----------------------------------------------------------------------------|

e|-----------------------------------------------------------------------------|
B|--15\13-12-12--15-17--13-12-10h12-8--7-8-7-5-7-5-----------------------------|
G|-------------------------------------------------7-9br10---------------------|
D|-----------------------------------------------------------------------------|
A|-----------------------------------------------------------------------------|
E|-----------------------------------------------------------------------------|


e|--------------------------7--5-5-3p0----7-5-3-5-3-0-0--7/10-12--7-5--3-0-----|
B|--9-7-5-4-5-7-9-4-5-7~~~-----------------------------------------------------|
G|-----------------------------------------------------------------------------|
D|-----------------------------------------------------------------------------|
A|-----------------------------------------------------------------------------|
E|-----------------------------------------------------------------------------|

                        (piano)
e|--0-2-3--5-5-3\2-0-|---0-2-3-5-7-8-10--12-14-15-14-10------------------------|
B|-------------------|----------------------------------10-10--8\7-5-8\7-5-5---|
G|-------------------|---------------------------------------------------------|
D|-------------------|---------------------------------------------------------|
A|-------------------|---------------------------------------------------------|
E|-------------------|---------------------------------------------------------|

e|--0-2-3-5-7-8-10--12-14-15-14-15-17-15-17-19---------------------------------|
B|-----------------------------------------------------------------------------|
G|-----------------------------------------------------------------------------|
D|-----------------------------------------------------------------------------|
A|-----------------------------------------------------------------------------|
E|-----------------------------------------------------------------------------|


Verse: Em, C, Am
My name remains prisoner,
Trapped and my world is gone
And I'm the only one who still lives here
And I've got all the light storms

So you can stop and visit me in my cell,
And we can talk if we've got the time
And you can start to go on your way
Cause' I believe I found, I found mine

Chorus: Dm, Dm, Am, C

e|--0-3-5-7-5-3p0--0-3-5-7\5-3-5-5-5--0-3-5-7-6h5-3h5-3--0-6\5-3-5-3-5-5-3-0-0-|
B|-----------------------------------------------------------------------------|
G|-----------------------------------------------------------------------------|
D|-----------------------------------------------------------------------------|
A|-----------------------------------------------------------------------------|
E|-----------------------------------------------------------------------------|




************************************

| /   slide up
| \   slide down
| h   hammer-on
| p   pull-off
| ~   vibrato
| +   harmonic
| x   Mute note
| b   Bend
| pb  Pre-bend
| br  Bend release
| pbr Pre-bend release
| brb Bend release bend

************************************
Добавлено: 10.07.2015
Другие материалы по этой песне:
  • Аккорды и текст

Страница создана 10.07.2015
http://primanota.ru/soja/thunderstorms-chords.htm
Привет, Гость.
Предлагаем пройти революционный курс по гитаре.
Подарок от PrimaNota.Ru, забирай!