PrimaNota.ru - самый крупный в мире бесплатный архив песенных текстов, аккордов, табулатур и нот


Soja - Strong For Them - бас-таба, видео

Регистрация Запомнить меня
Войти через:  Facebook Google Twitter Vk Yandex Mail.ru

Soja - Strong For Them - бас-таба, видео

Печатать
Просмотров: 126
Уроки эстрадного вокала в Санкт-Петербурге
-------------------------------------------------------------------------------
                             Strong For Them - SOJA
-------------------------------------------------------------------------------
Tabbed by: Masturbasser
Tuning: Standard


Intro/Verse

G|-----------------------|
D|-----------------------|
A|-5-----55-563---131-1--|
E|--33--3--3-----------1-|

When singing begins....

G|-----------------------|
D|-----------------------|
A|-5------------------1--| X2
E|--33-----------------1-|

Repeat Intro/Verse until Chorus....


Chorus                                  Transition

G|---------------------5---------5-------|-----|
D|------------5-----------35---35---35---|-----|
A|-5-1335---35---35---3-----3---------3--|-345-|
E|--3----3---------3---------------------|-----|

Ending

G|---------|
D|-------5-|
A|-5-1335--|
E|--3------|


This is the basis for the song, feel free to jazz it up a bit with some stops, slides, etc.

===============================================================================
Добавлено: 25.10.2013
Другие материалы по этой песне:
  • Аккорды и текст

Страница создана 25.10.2013
http://primanota.ru/soja/strong-for-them-chords.htm
Привет, Гость.
Предлагаем пройти революционный курс по гитаре.
Подарок от PrimaNota.Ru, забирай!