PrimaNota.ru - самый крупный в мире бесплатный архив песенных текстов, аккордов, табулатур и нот


Soja - Strength To Survive - аккорды и текст, таба, видео

Регистрация Запомнить меня
Войти через:  Facebook Google Twitter Vk Yandex Mail.ru

Soja - Strength To Survive - аккорды и текст, таба, видео

Печатать
Просмотров: 211
Strength To Survive
Soja
 Artist:Soja
        Song:Strength to Survive
        Album:Strength to Survive



[Intro] It's not guitar but here is one way to play it

e|-----------------------------------------------------------------|
B|-10-10--8-8--10--10-10--8-8-10-10--6--10-10-8-8-10-10--6--10--8--|
G|-----------------------------------------------------------------|
D|-----------------------------------------------------------------|
A|-----------------------------------------------------------------|
E|-----------------------------------------------------------------|

e|---------------------------------------------------------------------------|
B|-10-10--8-8--10--10-10--8-8-10-10--6--10-10-8-8-10-10--6--10--10-8-10------|
G|---------------------------------------------------------------------------|
D|---------------------------------------------------------------------------|
A|---------------------------------------------------------------------------|
E|---------------------------------------------------------------------------|
 
You can play this along with the horns and it sounds good but It's actually played with reggae
strumming.
 
e|---5-5-5-5-5--5-5-5-5-5-5-5--5-5-5-5-5---8------6-----------|
B|---6-6-6-6-6--6-6-6-6-6-6-6--6-6-6-6-6---8------6-----------|
G|---7-7-7-7-7--7-7-7-7-7-7-7--7-7-7-7-7---9------7-----------|
D|---7-7-7-7-7--7-7-7-7-7-7-7--7-7-7-7-7---10-----8-----------|
A|---5-5-5-5-5--5-5-5-5-5-5-5--5-5-5-5-5---10-----8-----------|
E|-----------------------------------------8------6-----------|

Listen for strumming patterns. It's really easy but changes a few times.



Chords Used
    Dm  C  A#
e|--5---8---6---|
B|--6---8---6---|
G|--7---9---7---|
D|--7---10--8---|
A|--5---10--8---|
E|------8---6---|





[Verse]

       Dm                      C         A#
I'm amazed in a way that we've got this far
       Dm                        C          A#
At the pace we're going you'd think we're gone
     Dm                           C    A#
Amazed in a way that we're all still here
        Dm             C     A#
Just look at our last fifty years
         Dm                      C         A#
And our test in the west in the years to come
            Dm                           C          A#
Does the dollar really matter when the whole world's gone
   Dm                             C          A#
Worry about yourself while the world stills turns
   Dm                          C
But wait until we watching it burn

[Chorus]

Oh yeah
  Dm      C         A#        
Stuck in a revolving door
        Dm        C    A#
And calling our peace for sure
 Dm          C      A#    
Just look into your eyes
           Dm                C      A#
Now do we have the strength to survive
  Dm      C         A#
Stuck in a revolving door
        Dm         C    A#
And calling our peace for sure
 Dm          C      A#
Just look into your eyes
            Dm                C      A#
Now do we have the strength to survive it vive it yeah

[Intro]

[Verse]
              Dm                  C    A#
It's not like cigarettes not like your tv
      Dm                        C      A#
It's bigger and broader than any other thing
 Dm                       C        A#
Just consume less and give him back more
     Dm           Dm
And leave your old ways at the door
          Dm                       C     A#
And our way if we don't you can kiss it goodbye
 Dm                   C            A#    
Our sun our moon our earth and our sky
     Dm                  C           A#
Our world will recover in a billion years
          Dm
But fuck it if we not even here

[Chorus]
  C  A#
When we are
  Dm       C        A#
Stuck in a revolving door
        Dm        C    A#
And calling our peace for sure
 Dm          C      A#
Just look into your eyes
           Dm
Now do we have the strength to survive

  
When we are
  Dm       C        A#
Stuck in a revolving door
        Dm        C    A#
And calling our peace for sure
 Dm          C      A#
Just look into your eyes
           Dm
Now do we have the strength to survive


C'mon

Dm              Dm
Do we have the strength to survive

Dm
C'mon
Dm              Dm
Do we have the strength to survive

Dm
C'mon
Dm              Dm                       Dm
Do we have the strength to, we have the strength to
Dm              Dm
Do we have the strength to survive

  C  A#
When we are
  Dm       C        A#
Stuck in a revolving door
        Dm        C    A#
And calling our peace for sure
 Dm          C      A#
Just look into your eyes
           Dm
Now do we have the strength to survive
Добавлено: 04.06.2016
Другие материалы по этой песне:
  • Аккорды и текст

Страница создана 01.08.2013
http://primanota.ru/soja/strength-to-survive-chords.htm
Привет, Гость.
Предлагаем пройти революционный курс по гитаре.
Подарок от PrimaNota.Ru, забирай!