PrimaNota.ru - самый крупный в мире бесплатный архив песенных текстов, аккордов, табулатур и нот


Soja - Peace In A Time Of War - таба, видео

Регистрация Запомнить меня
Войти через:  Facebook Google Twitter Vk Yandex Mail.ru

Soja - Peace In A Time Of War - таба, видео

Печатать
Просмотров: 74
Peace In a Time of War - SOJA

Tabbed by: jahbrudda

Tuning: standard

e|--------------------------------------------------------------------------|
B|--------------------------------------------------------------------------|
G|---7/8/7--5-3-5/8-7-5-3---3------5/8/7-5-3-5/8/7---8-8-7-5----------------|
D|-5----------------------5------------------------8------------------------|
A|--------------------------------------------------------------------------|
E|--------------------------------------------------------------------------|
                   A#  Am  Gm  F
e|-----------------6---5---3---1------------|
B|-----------7-6---6---5---3---1------------|
G|-7/8/7-5-3-------7---5---3---2------------|
D|-----------------8---7---5---3------------|
A|-----------------8---7---5---3------------|
E|-----------------6---5---3---1------------|
    Gm  Cm
e|--3---3--------|
B|--3---4--------|
G|--3---5--------|  Verse
D|--5---5--------|
A|--5---3--------|
E|--3---x--------|

Chorus- Gm Cm A# Am
Добавлено: 08.10.2013
Другие материалы по этой песне:
  • Аккорды и текст

Страница создана 08.10.2013
http://primanota.ru/soja/peace-in-a-time-of-war-chords.htm
Привет, Гость.
Предлагаем пройти революционный курс по гитаре.
Подарок от PrimaNota.Ru, забирай!